Войти:  Facebook Google Twitter Vk Yandex Mail.ru
PrimaNota.ru - самый крупный в мире бесплатный архив песенных текстов, аккордов, табулатур и нот


Avatar - Leaves From The Vine Safe Return Medley - табы

Печатать
ViraMusic 2019 в Петербурге 4 апреля 2019! Скидка 10%!

Leaves From The Vine Safe Return Medley

  • аккорды, текст

https://www.youtube.com/watch?v=jJ1PvSBj1dU

Capo 3

[Intro]
(Safe Return melody)
   1  e  +  a  2  e  +  a  3  e  +  a  4  e  +  a    1  e  +  a  2  e  +  a  3  e  +  a  4  e  +  a  
e|-------------------------------------------------|-------------------------------------------------|
b|------*7----------*12---------*7----------*12----|------*7----------*12---------*7----------*12----|
G|*5----------*7----------*5----------*7-----------|*5----------*7----------*5----------*7-----------|
D|-------------------------------------------------|-------------------------------------------------|
A|-------------------------------------------------|-------------------------------------------------|
E|-------------------------------------------------|-------------------------------------------------|

[Verse 1]
(Leaves From The Vine melody)
   G
   1  e  +  a  2  e  +  a  3  e  +  a  4  e  +  a    1  e  +  a  2  e  +  a  3  e  +  a  4  e  +  a   
e|-------------------------------------------------|-------------------------------------------------|
b|-3-----------3-----1----------------*7-----------|-------3-----3-----1----------------*7-----------|
G|-------------0-------2/4------------------*7-----|-------------0-------2/4------------------*5-----|
D|-------0-----------------------0-----------------|-------0-----------------------0-----------------|
A|-------------------------------------------------|-------------------------------------------------|
E|-3-----------------------3-----------------------|-3-----------------------3-----------------------|

   Em7
   1  e  +  a  2  e  +  a  3  e  +  a  4  e  +  a    1  e  +  a  2  e  +  a  3  e  +  a  4  e  +  a   
e|-------------------------------------------------|-------------------------------------------------|
b|-0-----------------1-----0-----------------------|-0-----0-----0-----------------------------------|
G|-------------0-----------------2-p0--------------|-------------0-----2-p0--------------------0-----|
D|-------0-----------------------------------0-----|-------0-----------------------0-----------------|
A|-------------------------------------9-----------|-------------------------------------9-----------|
E|-0-----------------------0-----------------------|-0-----------------------0-----------------------|

   G
   1  e  +  a  2  e  +  a  3  e  +  a  4  e  +  a    1  e  +  a  2  e  +  a  3  e  +  a  4  e  +  a   
e|-------------------------------------------------|-------------------------------------------------|
b|-3-----------3-----1----------------*7-----------|-------3-----3-----1----------------*7-----------|
G|-------------0-------2/4------------------*7-----|-------------0-------2/4------------------*5-----|
D|-------0-----------------------0-----------------|-------0-----------------------0-----------------|
A|-------------------------------------------------|-------------------------------------------------|
E|-3-----------------------3-----------------------|-3-----------------------3-----------------------|

   Em7                                               D6/F#
   1  e  +  a  2  e  +  a  3  e  +  a  4  e  +  a    1  e  +  a  2  e  +  a  3  e  +  a  4  e  +  a   
e|-------------------------------------------------|-------------------------------------------------|
b|-0-----------------1-----0-----------------------|-------------------0-----------0-----0-----------|
G|-------------0-----------------2-p0--------------|-------------0-----------------------0-----2-p0--|
D|-------0-----------------------------------0-----|-------0-----------------------0-----------------|
A|-------------------------------------9-----------|-------------------------------------------------|
E|-0-----------------------0-----------------------|-2-----------------------2-----------------------|

   G
   1  e  +  a  2  e  +  a  3  e  +  a  4  e  +  a     
e|-------------------------------------------------|
b|-------------------3-----------------------3-----|
G|-------------0-----------------------0-----------|
D|-------0-----------------------0-----------------|
A|-------------------------------------------------|
E|-3-----------------------3-----------------------|

[Interlude]
(Safe Return melody)
   1  e  +  a  2  e  +  a  3  e  +  a  4  e  +  a    1  e  +  a  2  e  +  a  3  e  +  a  4  e  +  a  
e|-------------------------------------------------|-------------------------------------------------|
b|------*7----------*12---------*7----------*12----|------*7----------*12---------*7----------*12----|
G|*5----------*7----------*5----------*7-----------|*5----------*7----------*5----------*7-----------|
D|-------------------------------------------------|-------------------------------------------------|
A|-------------------------------------------------|-------------------------------------------------|
E|-------------------------------------------------|-------------------------------------------------|

[Verse 2]
(Leaves From The Vine melody)
   G
   1  e  +  a  2  e  +  a  3  e  +  a  4  e  +  a    1  e  +  a  2  e  +  a  3  e  +  a  4  e  +  a   
e|-------------------------------------------------|-------------------------------------------------|
b|-3-----------3-----1----------------*7-----------|-------3-----3-----1----------------*7-----------|
G|-------------0-------2/4------------------*7-----|-------------0-------2/4------------------*5-----|
D|-------0-----------------------0-----------------|-------0-----------------------0-----------------|
A|-------------------------------------------------|-------------------------------------------------|
E|-3-----------------------3-----------------------|-3-----------------------3-----------------------|

   Em7                                               Cmaj7(b5)
   1  e  +  a  2  e  +  a  3  e  +  a  4  e  +  a    1  e  +  a  2  e  +  a  3  e  +  a  4  e  +  a   
e|-------------------------------------------------|-------------------------------------------------|
b|-0-----------------1-----0-----------------------|-------------------0-----------------------0-----|
G|-------------0-----------------2-p0--------------|-------------0-----------------------0-----------|
D|-------0-----------------------------------0-----|-------4-----------------------4-----------------|
A|-------------------------------------9-----------|-3-----------------------3-----------------------|
E|-0-----------------------0-----------------------|-------------------------------------------------|

   G
   1  e  +  a  2  e  +  a  3  e  +  a  4  e  +  a    1  e  +  a  2  e  +  a  3  e  +  a  4  e  +  a   
e|-------------------------------------------------|-------------------------------------------------|
b|-3-----------3-----1----------------*7-----------|-------3-----3-----1----------------*7-----------|
G|-------------0-------2/4------------------*7-----|-------------0-------2/4------------------*5-----|
D|-------0-----------------------0-----------------|-------0-----------------------0-----------------|
A|-------------------------------------------------|-------------------------------------------------|
E|-3-----------------------3-----------------------|-3-----------------------3-----------------------|

   Em7                                               D6/F#
   1  e  +  a  2  e  +  a  3  e  +  a  4  e  +  a    1  e  +  a  2  e  +  a  3  e  +  a  4  e  +  a   
e|-------------------------------------------------|-------------------------------------------------|
b|-0-----------------1-----0-----------------------|-------------------0-----------0-----0-----------|
G|-------------0-----------------2-p0--------------|-------------0-----------------------0-----2-----|
D|-------0-----------------------------------0-----|-------0-----------------------0-----------------|
A|-------------------------------------9-----------|-------------------------------------------------|
E|-0-----------------------0-----------------------|-2-----------------------2-----------------------|

   G
   1  e  +  a  2  e  +  a  3  e  +  a  4  e  +  a     
e|-3-----------------------------------------------|
b|-0-----------------------------------------------|
G|-0-----------------------------------------------|
D|-0-----------------------------------------------|
A|-2-----------------------------------------------|
E|-3-----------------------------------------------|


************************************

| *  Natural harmonic
| /  Slide up
| p  Pull-off

************************************   
Другие материалы по этой песне:
  • Аккорды, текст

https://primanota.ru/avatar/leaves-from-vine-safe-return-medley-chords.htm

Привет, гитарист!

Тебе подарок от сайта PrimaNota.ru

Забрать подарок
ВАМ ПОДАРКИ ОТ ПРОЕКТА
"ГИТАРНАЯ РЕВОЛЮЦИЯ"