Войти:  Facebook Google Twitter Vk Yandex Mail.ru
PrimaNota.ru - самый крупный в мире бесплатный архив песенных текстов, аккордов, табулатур и нот


Avatar - The Eagle Has Landed - табы

Печатать
ViraMusic 2019 в Петербурге 4 апреля 2019! Скидка 10%!

The Eagle Has Landed

  • аккорды, текст

[Intro]

e|---------------------------------------------------------------------------|
B|--------------------------------------------------------------12-10-8-10-12|
G|-12-11-9-11-12-11-9-11-12-11-9-11-12----12-11-9-11-12-11-9-11--------------|
D|---------------------------------------------------------------------------| x2
A|---------------------------------------------------------------------------|
D|---------------------------------------------------------------------------|


e|---------------------------------------------------------------------------| 
B|---------------------------------------------------------------------------|   
G|---------------------------------------------------------------------------|   
D|---------------------------------------7--9--12--9-------------------------|   
A|---------------------------------------5--7--10--7-------------------------|   
D|--9-5-0--0---0--5-9-5-0-7-10--7-5-9-5--------------------------------------|   
                                                                              x2 both
e|---------------------------------------------------------------------------|   
B|---------------------------------------------------------------------------|   
G|---------------------------------------------------------------------------|   
D|---------------------------------------------------------------------------|   
A|---------------------------------------------------------------------------|   
D|--9-5-0--0---0--5-9-5-0-7-10----7-5-7-5-7-7--7-5-7--7-5-7b-----------------|  


e|---------------------------------------------------------------------------|
B|---------------------------------------------------------------------------|
G|---------------------------------------------------------------------------|
D|---------------------------------------------------------------------------|
A|--0----------/-------------------------------------------------------------|
D|--0----------/-------------------------------------------------------------|
                Pick slide                                                                  

[Verse]

e|---------------------------------------------------------------------------|
B|---------------------------------------------------------------------------|
G|---------------------------------------------------------------------------|
D|---------------------------------------7-9-9-------------------------------|
A|---------------------------------------5-7-7-------------------------------|
D|-9-5-0--0--0--0--0--0--0---9-5-0--0--0-------------------------------------|
          *  *  *  *  *  *                      

e|---------------------------------------------------------------------------|
B|---------------------------------------------------------------------------|
G|---------------------------------------------------------------------------|
D|---------------------------------------------------------------------------|
A|----------------------------7-7-5-7----7-9---------------------------------|
D|-9-5-0--0--0--0--0--0--0----7-7-5-7----7-9--9-5-0--------------------------|
          *  *  *  *  *  *   

  0:50 
e|---------------------------------------------------------------------------|
B|---------------------------------------------------------------------------|
G|---------------------------------------------------------------------------|
D|-------------7-9-------------------------9-7-5---7---9---------------------|
A|-------------5-7-----------7-5-7--7-5-7--9-7-5---7---9---------------------|
D|-9-5-0----0-------9-5-0----7-5-7--7-5-7--9-7-5---7---9--9~~----------------|


[Chorus]

e|---------------------------------------------------------------------------|
B|---------------------------------------------------------------------------|
G|-4-4--4-4------------------------------------------------------------------|
D|-4-4--4-4---2-2--2-2---5-5--5-5---7-7---4-4--------------------------------|
A|-2-2--2-2---2-2--2-2---5-5--5-5---7-7---4-4--------------------------------|
D|------------2-2--2-2---5-5--5-5---7-7---4-4--------------------------------|
     *    *     *    *     *    *     *     *                                             

e|---------------------------------------------------------------------------|
B|---------------------------------------------------------------------------|
G|-4-4--4-4------------------------------------------------------------------|
D|-4-4--4-4---2-2--2-2---5-5--5-5---7-7---9-9--------------------------------|
A|-2-2--2-2---2-2--2-2---5-5--5-5---7-7---9-9--------------------------------|
D|------------2-2--2-2---5-5--5-5---7-7---9-9--------------------------------|
     *    *     *    *     *    *     *     *       

         
 [Pre-Verse]

e|---------------------------------------------------------------------------|  
B|---------------------------------------------------------------------------|  
G|---------------------------------------------------------------------------|  
D|---------------------------------------7--9--12--9-------------------------|  
A|---------------------------------------5--7--10--7-------------------------|  
D|--9-5-0--0---0--5-9-5-0-7-10--7-5-9-5--------------------------------------|  
      
e|---------------------------------------------------------------------------|   
B|---------------------------------------------------------------------------|   
G|---------------------------------------------------------------------------|   
D|---------------------------------------------------------------------------|   
A|---------------------------------------------------------------------------|   
D|--9-5-0--0---0--5-9-5-0-7-10----7-5-7-5-7-7--7-5-7--7-5-7b-----------------|  


[Verse]

e|---------------------------------------------------------------------------|
B|---------------------------------------------------------------------------|
G|---------------------------------------------------------------------------|
D|---------------------------------------7-9-9-------------------------------|
A|---------------------------------------5-7-7-------------------------------|
D|-9-5-0--0--0--0--0--0--0---9-5-0--0--0-------------------------------------|
          *  *  *  *  *  *  

e|---------------------------------------------------------------------------|
B|---------------------------------------------------------------------------|
G|---------------------------------------------------------------------------|
D|---------------------------------------------------------------------------|
A|----------------------------7-7-5-7----7-9---------------------------------|
D|-9-5-0--0--0--0--0--0--0----7-7-5-7----7-9--9-5-0--------------------------|
          *  *  *  *  *  *  

e|---------------------------------------------------------------------------|
B|---------------------------------------------------------------------------|
G|---------------------------------------------------------------------------|
D|-------------7-9-------------------------9-7-5---7---9---------------------|
A|-------------5-7-----------7-5-7--7-5-7--9-7-5---7---9---------------------|
D|-9-5-0----0-------9-5-0----7-5-7--7-5-7--9-7-5---7---9--9~~----------------|


[Chorus]

e|---------------------------------------------------------------------------|
B|---------------------------------------------------------------------------|
G|-4-4--4-4------------------------------------------------------------------|
D|-4-4--4-4---2-2--2-2---5-5--5-5---7-7---4-4--------------------------------|
A|-2-2--2-2---2-2--2-2---5-5--5-5---7-7---4-4--------------------------------|
D|------------2-2--2-2---5-5--5-5---7-7---4-4--------------------------------|
     *    *     *    *     *    *     *     *   

e|---------------------------------------------------------------------------|
B|---------------------------------------------------------------------------|
G|-4-4--4-4------------------------------------------------------------------|
D|-4-4--4-4---2-2--2-2---5-5--5-5---7-7---9-9--------------------------------|
A|-2-2--2-2---2-2--2-2---5-5--5-5---7-7---9-9--------------------------------|
D|------------2-2--2-2---5-5--5-5---7-7---9-9--------------------------------|
     *    *     *    *     *    *     *     *   


[Pre-Verse]

e|---------------------------------------------------------------------------|  -
B|---------------------------------------------------------------------------|   |
G|---------------------------------------------------------------------------|   |
D|---------------------------------------7--9--12--9-------------------------|   |
A|---------------------------------------5--7--10--7-------------------------|   |
D|--9-5-0--0---0--5-9-5-0-7-10--7-5-9-5--------------------------------------|   |
                                                                                 |    
e|---------------------------------------------------------------------------|   |
B|---------------------------------------------------------------------------|   |
G|---------------------------------------------------------------------------|   |
D|---------------------------------------------------------------------------|   |
A|---------------------------------------------------------------------------|   |
D|--9-5-0--0---0--5-9-5-0-7-10----7-5-7-5-7-7--7-5-7--7-5-7b-----------------|  -


[Rhythm solo] 

2:36
e|---------------------------------------------------------------------------|
B|---------------------------------------------------------------------------|
G|---------------------------------------------------------------------------|
D|----------------9-----------7--9--9-----------------9----------------------|
A|----------------9-----------5--7--7-----------------9----------------------|
D|-9-5-0---9-5-0--9--9-5-0--0----------9-5-0---9-5-0--9--7-5-7--7-5-7--------|

2:48
e|---------------------------------------------------------------------------|
B|---------------------------------------------------------------------------|
G|---------------------------------------------------------------------------|
D|-4--4--5-7-9---------------------------------------------------------------|
A|-2--2--5-7-9---------------------------------------------------------------|
D|-------5-7-9---------------------------------------------------------------|

e|---------------------------------------------------------------------------|
B|---------------------------------------------------------------------------|
G|-4-4--4-4------------------------------------------------------------------|
D|-4-4--4-4---2-2--2-2---5-5--5-5---7-7---4-4--------------------------------|
A|-2-2--2-2---2-2--2-2---5-5--5-5---7-7---4-4--------------------------------|
D|------------2-2--2-2---5-5--5-5---7-7---4-4--------------------------------|
     *    *     *    *     *    *     *     *   

e|---------------------------------------------------------------------------|
B|---------------------------------------------------------------------------|
G|-4-4--4-4------------------------------------------------------------------|
D|-4-4--4-4---2-2--2-2---5-5--5-5---7-7---9-9--------------------------------|
A|-2-2--2-2---2-2--2-2---5-5--5-5---7-7---9-9--------------------------------|
D|------------2-2--2-2---5-5--5-5---7-7---9-9--------------------------------|
     *    *     *    *     *    *     *     *   

3:10
e|---------------------------------------------------------------------------|
B|---------------------------------------------------------------------------|
G|---------------------------------------------------------------------------|
D|-5--5--5-------------------------------------------------------------------|
A|-5--5--5-------------------------------------------------------------------|
D|-5--5--5-------------------------------------------------------------------|


3:14


[Chorus]

e|---------------------------------------------------------------------------|
B|---------------------------------------------------------------------------|
G|-4-4--4-4------------------------------------------------------------------|
D|-4-4--4-4---2-2--2-2---5-5--5-5---7-7---4-4--------------------------------|
A|-2-2--2-2---2-2--2-2---5-5--5-5---7-7---4-4--------------------------------|
D|------------2-2--2-2---5-5--5-5---7-7---4-4--------------------------------|
     *    *     *    *     *    *     *     *   

e|---------------------------------------------------------------------------|
B|---------------------------------------------------------------------------|
G|-4-4--4-4------------------------------------------------------------------|
D|-4-4--4-4---2-2--2-2---5-5--5-5---7-7---9-9--------------------------------|
A|-2-2--2-2---2-2--2-2---5-5--5-5---7-7---9-9--------------------------------|
D|------------2-2--2-2---5-5--5-5---7-7---9-9--------------------------------|
     *    *     *    *     *    *     *     *   

e|---------------------------------------------------------------------------|
B|---------------------------------------------------------------------------|
G|-4-4--4-4------------------------------------------------------------------|
D|-4-4--4-4---2-2--2-2---5-5--5-5---7-7---4-4--------------------------------|
A|-2-2--2-2---2-2--2-2---5-5--5-5---7-7---4-4--------------------------------|
D|------------2-2--2-2---5-5--5-5---7-7---4-4--------------------------------|
     *    *     *    *     *    *     *     *   

e|---------------------------------------------------------------------------|
B|---------------------------------------------------------------------------|
G|-4-4--4-4------------------------------------------------------------------|
D|-4-4--4-4---2-2--2-2---5-5--5-5---7-7---9-9-------4--4----4----------------|
A|-2-2--2-2---2-2--2-2---5-5--5-5---7-7---9-9-------4--4----4----------------|
D|------------2-2--2-2---5-5--5-5---7-7---9-9-------2--2----2----------------|
     *    *     *    *     *    *     *     *       *  * 



************************************

| b  Bend
| /  Slide up
| ~  Vibrato
| *  Palm muting   

************************************   
https://primanota.ru/avatar/eagle-has-landed-chords.htm

Привет, гитарист!

Тебе подарок от сайта PrimaNota.ru

Забрать подарок
ВАМ ПОДАРКИ ОТ ПРОЕКТА
"ГИТАРНАЯ РЕВОЛЮЦИЯ"