Войти:  Facebook Google Twitter Vk Yandex Mail.ru
PrimaNota.ru - самый крупный в мире бесплатный архив песенных текстов, аккордов, табулатур и нот


Asto Pituak - Gualtrapas - табы

Печатать
Лучшая metal-группа Петербурга

Gualtrapas

  • аккорды, текст

ESTA ES LA INTRO, ESTA FACIL.

e-----------4--4--4--2--2--2--4--4--4-----
B------------55-55-5--33-33-3--55-55-5----
G--6--6--6--------------------------------
D---77-77-7-------------------------------
A-----------------------------------------
E-----------------------------------------

e-----------4--4--4--2--2--2--4--4--4-----
B------------55-55-5--33-33-3--55-55------
G--6--6--6--------------------------------
D---77-77-7-------------------------------
A-----------------------------------------
E-----------------------------------------

A D-E  D  C# E-F# E  D  B  E   X2

A                   E
Huelo tu uniforme, lacayo del ayunta,
C#                       F#
ya llegas con tu porra y tu imbecilidad.
Deseas que obedezca me quitas los carteles,
me pones una multa y tu superioridad.
Intuyo tu silueta quieres desalojarnos,
golpeas a la gente ahi no dudaras.
Y yo sobre ti escupo con el mismo desprecio
que lo hago sobre cristo, deja ya de agobiar.

A D-E  D  C# E-F# E  D  B  E   X2

Descansando en el parque si silbo te molesta
y de nuevo apareces, jodes la tranquilidad.
Te ciñes a las leyes que te ordenan de arriba,
espias a la peña, buen sueldo cobraras.
Fuiste un antiguo amigo, aprobastes las pruebas,
te has afiliado a LAB, munipa radical!
Pero si algun dia mueres no he de olvidar tu saña,
tus colaboraciones y me voy a alegrar.

A D-E  D  C# E-F# E  D  B  E

F# D               F# D
    Gualtrapas de mierda.
        F# D         E
Te odio y quiero que te mueras

INTRO

A D-E  D  C# E-F# E  D  B  E   X2

F# D               F# D
    Gualtrapas de mierda.
        F# D         E
Te odio y quiero que te mueras

A?


A TOCARLA NOMAS, SALUD.   
https://primanota.ru/asto-pituak/gualtrapas-chords.htm

Привет, гитарист!

Тебе подарок от сайта PrimaNota.ru

Забрать подарок
ВАМ ПОДАРКИ ОТ ПРОЕКТА
"ГИТАРНАЯ РЕВОЛЮЦИЯ"