Войти:  Facebook Google Twitter Vk Yandex Mail.ru
PrimaNota.ru - самый крупный в мире бесплатный архив песенных текстов, аккордов, табулатур и нот


Asking Alexandria - The Lost Souls - табы

Печатать
ViraMusic 2019 в Петербурге 4 апреля 2019! Скидка 10%!

The Lost Souls

  • аккорды, текст

Asking Alexandria
The Lost Souls
Drop B

[Intro]

e|---------------------------------------------------------------| 
B|---------------------------------------------------------------|
G|---------------------------------------------------------------|
D|-------3--5-6-8--10--11--13------------------------------------|
A|-------3--5-6-8--10--11--13------------------------------------|   
E|-------3--5-6-8--10--11--13------------------------------------| 

e|---------------------------------------------------------------|
B|---------------------------------------------------------------|
G|---------------------------------------------------------------|
D|----3--5-6-8--10-11--------------------------------------------| 
A|----3--5-6-8--10-11--------------------------------------------|
E|----3--5-6-8--10-11--------------------------------------------| 

e|---------------------------------------------------------------|
B|---------------------------------------------------------------|
G|---------------------------------------------------------------|
D|---3h6p3h6p3-3h6p3h6p3--8-6-8--3h6p3h6p3-----------------------| 
A|---------------------------------------------------------------| 
E|---------------------------------------------------------------| 


[Verse]

e|---------------------------------------------------------------|
B|---------------------------------------------------------------|
G|---17b--16b-15b--14b---13b--9b--10b----------------------------|  
D|---------------------------------------------------------------|  
A|---------------------------------------------------------------|
E|------------------------------------------------------------0b-| <----- Press String Down On The Headstock


[Chorus]

e|---------------------------------------------------------------|
B|---------------------------------------------------------------|
G|---------------------------------------------------------------|
D|-------3--5-6-8--10--11--13------------------------------------|
A|-------3--5-6-8--10--11--13------------------------------------|   
E|-------3--5-6-8--10--11--13------------------------------------|  

e|---------------------------------------------------------------|
B|---------------------------------------------------------------|
G|---------------------------------------------------------------|
D|----3--5-6-8--10---11------------------------------------------|  
A|----3--5-6-8--10---11------------------------------------------|
E|----3--5-6-8--10---11------------------------------------------| 


[Bridge/Breakdown]

e|---------------------------------------------------------------|
B|---------------------------------------------------------------|
G|---------------------------------------------------------------|
D|---------------------------------------------------------------|  x2
A|---3-5-6--11-10-5-3-5-6-8-3-2----------------------------------|
E|---3-5-6--11-10-5-3-5-6-8-3-2----------------------------------|  

e|---------------------------------------------------------------|
B|---------------------------------------------------------------|
G|---------------------------------------------------------------|  
D|---------------------------------------------------------------| 
A|--6-8-10-9-11--13----------------------------------------------|
E|--6-8-10-9-11--13----------------------------------------------|              
PM****************************************************************

[Chorus]

e|---------------------------------------------------------------|
B|---------------------------------------------------------------|
G|---------------------------------------------------------------|
D|-------3--5-6-8--10--11--13------------------------------------|
A|-------3--5-6-8--10--11--13------------------------------------|  
E|-------3--5-6-8--10--11--13------------------------------------|  

e|---------------------------------------------------------------|
B|---------------------------------------------------------------|
G|---------------------------------------------------------------|
D|----3--5-6-8--10--11-------------------------------------------|  
A|----3--5-6-8--10--11-------------------------------------------|
E|----3--5-6-8--10--11-------------------------------------------|


[Outro]

e|---------------------------------------------------------------|
B|---------------------------------------------------------------|
G|---------------------------------------------------------------|
D|---------------------------------------------------------------|
A|----6h8p6h8-6h8p6h8-----6h8p6h8-6h8p6h8-----6h8p6h8-6h8p6h8----| 
E|--3------------------3-------------------3---------------------| 
                                                                     x2 Top Part Is Played Twice Then The
e|---------------------------------------------------------------|      Whole Thing Is Played Twice
B|---------------------------------------------------------------|
G|---------------------------------------------------------------| 
D|---------------------------------------------------------------|
A|---------------------------------------------------------------|
E|--3--6--8--9-8-6-----------------------------------------------|


***********************************
| b   Bend
| h   Hammer On
| p   Pull Off
| PM  Palm Mute
***********************************   
Другие материалы по этой песне:
  • Аккорды, текст

https://primanota.ru/asking-alexandria/lost-souls-chords.htm

Привет, гитарист!

Тебе подарок от сайта PrimaNota.ru

Забрать подарок
ВАМ ПОДАРКИ ОТ ПРОЕКТА
"ГИТАРНАЯ РЕВОЛЮЦИЯ"