PrimaNota.ru - самый крупный в мире бесплатный архив песенных текстов, аккордов, табулатур и нот


Arsonists Get All The Girls - Mantipede - бас-таба, видео

Регистрация Запомнить меня
Войти через:  Facebook Google Twitter Vk Yandex Mail.ru

Arsonists Get All The Girls - Mantipede - бас-таба, видео

Печатать
Просмотров: 141
Лучшая metal-группа Петербурга
Mantapede

Drop C Tuning CGCFAD

F[-------------------------------------------------------------------](x4)
C[-~--------------------------------3h4p3---3------------------------]
G[-3~--~-------3----------3---------------5---5----------------------]
C[---0-3-0~4-0--0-3-0-4-0--0-3-0-4~0------------3h4------------------]

Keyboard Break


F[---------------------------------------](X6)
C[-~-------------------------------------]
G[------------6-5-1----------------------]
C[-2-1~--5-4~-------2-1-5-4~-------------]



F[---------------------------------------](X4)  |-(Cut Off)|
C[-~-------------------------------------]      |----------|
G[-------------------655-----------------]      |----------|
C[-0~1~2~1~0~1~-~544---------------------]      |-0*-------|



F[---------------------------------------------------------------------](x5)
C[-~-------------------------------------------------------------------]
G[---------------------------------------------------------------------]
C[-000--000--0-1-0-1--000--000--0-1-0-1--000--000--0-1-0-1---(Pause)---]


F[-(Ring Out)----------------------------------------------------------]
C[-~-------------------------------------------------------------------]
G[---------------------------------------------------------------------]
C[-0-1-2-1--0~1-2-1--0-1-2-1--0*-(Cut Off*)----------------------------]

Добавлено: 11.05.2014
Вам также может быть интересно:
Другие материалы по этой песне:
  • Аккорды и текст

Страница создана 11.05.2014
https://primanota.ru/arsonists-get-all-the-girls/mantipede-chords.htm
Привет, Гость.
Предлагаем пройти революционный курс по гитаре.
Подарок от PrimaNota.Ru, забирай!