Войти:  Facebook Google Twitter Vk Yandex Mail.ru
PrimaNota.ru - самый крупный в мире бесплатный архив песенных текстов, аккордов, табулатур и нот


AREA21 - Girls - таба, видео

Печатать
Просмотров: 91
Лучшая metal-группа Петербурга

Girls

  • аккорды и текст

CAPO on the 4th Fret


[Intro]

e|7-7-7/9-7-5---------5-------------------------5-|
B|------------7-7-5h7-------------------------7---|
G|----------------------6h7-7-6h7-6---------7-----|
D|----------------------------------7/9-9-9-------|
A|------------------------------------------------|
E|------------------------------------------------|(x1)


[Verse]

(Strum the notes given below)
e|-----------------------------------------------------------------|
B|-----------------------------------------------------------------|
G|0-0--0--0-0-0----0-0--0--0-0-0----4-4--4--4-4-4----4-4--4--4-4-4-|
D|0-0--0--0-0-0----2-2--2--2-2-2----4-4--4--4-4-4----4-4--4--4-4-4-|
A|2-2--2--2-2-2----2-2--2--2-2-2----2-2--2--2-2-2----2-2--2--2-2-2-|
E|3-3--3--3-3-3----0-0--0--0-0-0----2-2--2--2-2-2----2-2--2--2-2-2-|(x5)
  G                Em               B                B


[Drop]

e|2-0-----2-0-2-0-----2-0-2-3-2--2-0-2-0-----|-2-0-----2-0-2-0------2-0---2-0---2-0-----|
B|----3-0---------3-0--------------------3-0-|-----3-0---------3-0------------------3-0-|
G|-------------------------------------------|------------------------------------------|
D|-------------------------------------------|------------------------------------------|
A|-------------------------------------------|------------------------------------------|
E|-------------------------------------------|------------------------------------------|(x2)



************************************

| h  Hammer-on
| /  Slide up

************************************
Добавлено: 24.04.2018
Другие материалы по этой песне:
  • Аккорды и текст

Страница создана 24.04.2018
https://primanota.ru/area21/girls-chords.htm

Привет, гитарист!

Тебе подарок от сайта PrimaNota.ru

Забрать подарок
ВАМ ПОДАРКИ ОТ ПРОЕКТА
"ГИТАРНАЯ РЕВОЛЮЦИЯ"