Войти:  Facebook Google Twitter Vk Yandex Mail.ru
PrimaNota.ru - самый крупный в мире бесплатный архив песенных текстов, аккордов, табулатур и нот


Area 11 - Red Queen - табы, видео

Печатать
Лучшая metal-группа Петербурга

Red Queen

  • аккорды и текст

[Solo]

e|----------------------------------------------------------------------------------|
B|----------------------------------------------------------------------------------|
G|----------------------12--11------------12--11-------14----12-----14-----11-------|
D|---14--14--13--14-------------14----14----------14--------------------------------|
A|-----------------------------------------------------12----10-----12-----9--------|
E|----------------------------------------------------------------------------------|

e|----------------------------------------------------------------------------------|
B|----------------------------------------------------------------------------------|
G|----------------------12--11----------------------11-----11--11--11--11--11--9----|
D|---14--14--13--14-------------14--13----------------------------------------------|
A|--------------------------------------14--12--10--9-------------------------------|
E|----------------------------------------------------------------------------------|

e|----------------------------------------------------------------------------------|
B|----------------------------------------------------------------------------------|
G|----------------------12--11------------12--11-------14----12----9----14-----11---
D|---14--14--13--14-------------14----14----------14--------------------------------|
A|-----------------------------------------------------12----10----7----12-----9----|
E|----------------------------------------------------------------------------------|

e|---------------------------------------------------------------------------|
B|---------------------------------------------------------------------------|
G|-------------------16----------------------------14---12-------------------|
D|---14--14--13--14-------14----17-----16-17-16------------------------------|
A|-------------------------------------------------12---10-------------------|
E|---------------------------------------------------------------------------|

e|-------------------------------------------------------|
B|-------------------------------------------------------|
G|----16-----19-14----16-12-----11h12p11-----------------|
D|----------------------------------------14--13--14-----|
A|-------------------------------------------------------|
E|-------------------------------------------------------|

Tremolo picking
e|----------------------------------------------|
B|----------------------------------------------|
G|---9---------11---------14----------16--------|
D|----------------------------------------------|
A|----------------------------------------------|
E|----------------------------------------------|

e|-------------------------------------17b(19)---17b---17b--17b--17b--17br---17--17--17--17--17--15---------|
B|--------17---19-------17---------------------------------------------------------------------------17--15-|
G|---19----------------------19-----------------------------------------------------------------------------|
D|----------------------------------------------------------------------------------------------------------|
A|----------------------------------------------------------------------------------------------------------|
E|----------------------------------------------------------------------------------------------------------|

e|-------------------------------------17b-----------------------------------|
B|---17-----19--19br(20)----17---15------------------------------------------|
G|---------------------------------------------------------------------------|
D|---------------------------------------------------------------------------|
A|---------------------------------------------------------------------------|
E|---------------------------------------------------------------------------|


************************************

| h   Hammer-on
| p   Pull-off
| b   Bend
| br  Bend release

************************************   
Добавлено: 19.12.2017
Другие материалы по этой песне:
  • Аккорды и текст

Страница создана 19.12.2017
https://primanota.ru/area-11/red-queen-chords.htm

Привет, гитарист!

Тебе подарок от сайта PrimaNota.ru

Забрать подарок
ВАМ ПОДАРКИ ОТ ПРОЕКТА
"ГИТАРНАЯ РЕВОЛЮЦИЯ"