Войти:  Facebook Google Twitter Vk Yandex Mail.ru
PrimaNota.ru - самый крупный в мире бесплатный архив песенных текстов, аккордов, табулатур и нот


Area 11 - Override C - таба, видео

Печатать
Просмотров: 61
Лучшая metal-группа Петербурга

Override C

  • аккорды и текст

Tempo: 150~

[Chorus]

e|-------------------------------------------------------------|
B|-12~---------------------12----------------------------------|
G|-------------12~------------14-12-14-14-12-12/14-14-12-10-12-|
D|----12-10-12----12-10-12-------------------------------------|
A|-------------------------------------------------------------|
E|-------------------------------------------------------------|

e|-------------------------------------------------------------|--------------|
B|-------------------------------------------------------------|--------------|
G|-14~---------14~---------------------------14-14-12-12-12-14-|-9------------|
D|----12-10-12----12-10-12-12-12-10-12-12-10-------------------|--------------|
A|-------------------------------------------------------------|--------------|
E|-------------------------------------------------------------|--------------|


************************************

| /   Slide up
| ~   Vibrato (very slight, not required)

************************************
Добавлено: 19.12.2017
Другие композиции этого автора:
Другие материалы по этой песне:
  • Аккорды и текст

Страница создана 19.12.2017
https://primanota.ru/area-11/override-c-chords.htm

Привет, гитарист!

Тебе подарок от сайта PrimaNota.ru

Забрать подарок
ВАМ ПОДАРКИ ОТ ПРОЕКТА
"ГИТАРНАЯ РЕВОЛЮЦИЯ"