Войти:  Facebook Google Twitter Vk Yandex Mail.ru
PrimaNota.ru - самый крупный в мире бесплатный архив песенных текстов, аккордов, табулатур и нот


Area 11 - Override B - табы, видео

Печатать
Лучшая metal-группа Петербурга

Override B

  • аккорды и текст

Area 11 - Override [B]

This is the solo starting from around 2:12, there are some unusual note choices for Area 11 but they sound
correct to me, feel free to comment corrections.

e|-------------------------------------------------------------|
B|-------------------------------------------------------------|
G|-------------------------------------------------------------|
D|----------12------12-(X4)------------------11------11-(X4)---|
A|--10--12------12-------------------10--12------12------------|
E|-------------------------------------------------------------|
    PM.................................................

e|---------------------------------------------------------------------------|
B|---------------------------------------------------------------------------|
G|-----------------------------------------10--------------------------------|
D|----------12------12-------------12----------------------------------------|
A|--10--12------12---------10--12------12------------------------------------|
E|---------------------------------------------------------------------------|
    PM...................................

e|---------------------------------------------------------------------------|
B|---------------------------------------------------------------------------|
G|-----------------------------------------12--------------------------------|
D|----------12------12-------------12----------------------------------------|
A|--10--12------12---------10--12------12------------------------------------|
E|---------------------------------------------------------------------------|
    PM...................................

e|--------------------------------------------------------------------|
B|--------------------------------------------------------------------|
G|--------------------------------------------------------------------|
D|----------12------12-------------12------12-------------12------12--|
A|--10--12------12---------10--12------12---------10--12------12------|
E|--------------------------------------------------------------------|
    PM..............................................................

e|--------------------------------------------------------------|
B|--------------------------------------------------------------|
G|--------------10-12--14------10----12---10--10--9/19---18-----|
D|--------10-12-------------------------------------------------|
A|--10-12-------------------------------------------------------|
E|--------------------------------------------------------------|

e|---------------------------------------------------------------------------|
B|-------------------------18--20--22--------------23--22--------------------|
G|--18--14--17--19---------------------19--17--19----------17----------------|
D|---------------------------------------------------------------------------|
A|---------------------------------------------------------------------------|
E|---------------------------------------------------------------------------|

e|--13----------------------------------------------12-15-12-----------------|
B|-----15-13-15-13----13-------------------------13----------13--------------|
G|-----------------14----14-12----------------12----------------12-----------|
D|-----------------------------15-13-12----14--------------------------------|
A|--------------------------------------15-----------------------------------|
E|---------------------------------------------------------------------------|

e|------------15/17---15---20---19---15--------------------------------------|
B|--15---13------------------------------14--15--10--------------------------|
G|---------------------------------------------------------------------------|
D|---------------------------------------------------------------------------|
A|---------------------------------------------------------------------------|
E|---------------------------------------------------------------------------|

e|---------------------------------------------------------------------------|
B|---15N----------14N-------15N----17N---------------------------------------|
G|---------------------------------------------------------------------------|
D|---------------------------------------------------------------------------|
A|---------------------------------------------------------------------------|
E|---------------------------------------------------------------------------|


************************************

| /   Slide up
| PM  Palm mute
| N   Tremolo

************************************   
Добавлено: 19.12.2017
Другие материалы по этой песне:
  • Аккорды и текст

Страница создана 19.12.2017
https://primanota.ru/area-11/override-b-chords.htm

Привет, гитарист!

Тебе подарок от сайта PrimaNota.ru

Забрать подарок
ВАМ ПОДАРКИ ОТ ПРОЕКТА
"ГИТАРНАЯ РЕВОЛЮЦИЯ"