Войти:  Facebook Google Twitter Vk Yandex Mail.ru
PrimaNota.ru - самый крупный в мире бесплатный архив песенных текстов, аккордов, табулатур и нот


Arcane Roots - Slow - таба, видео

Печатать
Просмотров: 308
Лучшая metal-группа Петербурга

Slow


Intro (Driving)
E|-----------|
B|-----------|
G|-----------|
D|-----------|
A|----(5)----|
E|-----7-----|

Pre Verse
E|---------------------------------------------------------------------------|
B|---------------------------------------------------------------------------|
G|---------------13--------------13--------------13--------------------------|x3
D|---------------11--------------11--------------11--------------9--9--9--9--|
A|---11--11--11------11--11--11------11--11--11------11--11--11--x--x--x--x--|
E|---9---0---9-------9---0---9-------9---0---9-------9---0---9---11-11-11-11-|

E|----------------------------------------------------------------|
B|----------------------------------------------------------------|
G|---------------13--------------13--------------13---------------|
D|---------------11--------------11--------------11---------------|
A|---11--11--11------11--11--11------11--11--11------11\----------|
E|---9---0---9-------9---0---9-------9---0---9-------11\----------|

First Verse
E|---------------------------------------------------------------------------|
B|---------------------------------------------------------------------------|
G|---------------13--------------13--------------13--------------------------|
D|---------------11--------------11--------------11--------------9--9--9--9--|
A|---11--11--11------11--11--11------11--11--11------11--11--11--x--x--x--x--|
E|---9---0---9-------9---0---9-------9---0---9-------9---0---9---11-11-11-11-|

E|--------------------------------------------------------------|
B|--------------------------------------------------------------|
G|------------------------------------------------9--9--8-8-----|
D|--------------------------------------------------------------|
A|---9--7--7--x-7---7--6--6--x-6---6--4--4--x-4---7--7--6-6-----|
E|---5--5--5--x-5---5--5--5--x-5---5--5--5--x-5-----------------|

E|-----------------------------------------------------------------------------------------------------------|
B|-----------------------------------------------------------------------------------------------------------|
G|-------------13--------------13--------------13--------------13--------------------------------------------|
D|-------------11--------------11--------------11--------------11-----------------9--9--9--9----9--9--9--9---|
A|-11--11--11------11--11--11------11--11--11------11--11--11------11--11--11-----x--x--x--x----x--x--x--x---|
E|-9---0---9-------9---0---9-------9---0---9-------9---0---9-------9---0---9-----/11-11-11-11--/11-11-11-11--|

E|----------------------------------------------------------------|
B|----------------------------------------------------------------|
G|------------------------------------------------9--9------------|
D|------------------------------------------------------10-10-10--|
A|---9--7--7--x-7---7--6--6--x-6---6--4--4--x-4---7--7--7--7--7---|
E|---5--5--5--x-5---5--5--5--x-5---5--5--5--x-5---------8--8--8---|

Pre Chorus
E|-----------------------5p0--------------------4h5h7p5p4(p0)---------------------------|
B|--5--5--5----5---5--5------7p0-4p0-------------------------------------4h5h7p5p4(p0)--|
G|--6--6--6--x-6---6--6----------------9--9--9---------------------8b-------------------|
D|--x--x--x--x-x---x--x----------------x--x--x------------------------------------------|
A|--4--4--4--x-4---4--4----------------7--7--7------------------------------------------|
E|--5--5--5--x-5---5--5----------------9--9--9------------------7-----7-----------------|

E|-----------------------5p0--------------------4h5h7p5p4(p0)---------------------------|
B|--5--5--5---------5--5------7p0-4p0--------------------------------------5p0-h7p5\----|
G|--6--6--6--x-x--x-6--6----------------9--9--9---------------------8b------------------|
D|--x--x--x--x-x--x-x--x----------------x--x--x-----------------------------------------|
A|--4--4--4--x-x--x-4--4----------------7--7--7------------------6--6---6---------------|
E|--5--5--5--x-x--x-5--5----------------9--9--9------------------7--7---7---------------|

E|----------------------------------------------------------------------|
B|--5--5--5----5----5--5--5----5-----------------------------4h5p4------|
G|--6--6--6--x-6----6--6--6--x-6----9--9--9--x-9----8--8--8--------6/8--|
D|--x--x--x--x-x----x--x--x--x-x----x--x--x--x-x----x--x--x-------------|
A|--4--4--4--x-4----4--4--4--x-4----7--7--7--x-7----6--6--6-------------|
E|--5--5--5--x-5----5--5--5--x-5----9--9--9--x-9----7--7--7-------------|

E|--------------------------------------------------------------------|
B|--5--5--5----5----5--5--5----5--------------------------------------|
G|--6--6--6--x-6----6--6--6--x-6----9--9--9-11----8--8--8-------------|
D|--x--x--x--x-x----x--x--x--x-x----x--x--x-x-----x--x--x-------------|
A|--4--4--4--x-4----4--4--4--x-4----7--7--7-9-----6--6--6-------------|
E|--5--5--5--x-5----5--5--5--x-5----9--9--9-11----7--7--7-0-----------|

Chorus x2
E|--------------------------------------------------------------|
B|--5--5--5--5----5--5--5--x-5----5--5--5--5----5--5--5--x-5----|
G|--4--4--4--4----6--6--6--x-6----4--4--4--4----6--6--6--x-6----|
D|--2--2--2--2----x--x--x--x-x----2--2--2--2----x--x--x--x-x----|
A|--2--2--2--x----4--4--4--x-4----2--2--2--x----4--4--4--x-4----|
E|--0--0--0--4----5--5--5--x-5----0--0--0--4----5--5--5--x-5----|

E|--------------------------------------------------------------------|
B|--------------------------------------------------------------------|
G|--9--9--9--x-9----8--8--8--x-8----6--6--6--x-6----8--8--8--x-x-x-x--|
D|--x--x--x--x-x----x--x--x--x-x----x--x--x--x-x----x--x--x--x-x-x-x--| 
A|--7--7--7--x-7----6--6--6--x-6----4--4--4--x-4----6--6--6--x-x-x-x--|
E|--9--9--9--x-9----7--7--7--x-7----5--5--5--x-5----7--7--7--x-x-x-x--|

Pre Verse
E|---------------------------------------------------------------------------|
B|---------------------------------------------------------------------------|
G|---------------13--------------13--------------13--------------------------|
D|---------------11--------------11--------------11--------------9--9--9--9--|
A|---11--11--11------11--11--11------11--11--11------11--11--11--x--x--x--x--|
E|---9---0---9-------9---0---9-------9---0---9-------9---0---9---11-11-11-11-|

E|---------------------------------------------------------------------------|
B|---------------------------------------------------------------------------|
G|---------------13--------------13--------------13--------------------------|
D|---------------11--------------11--------------11--------------------------|
A|---11--11--11------11--11--11------11--11--11------11--11--11--11-11-11-11-|
E|---9---0---9-------9---0---9-------9---0---9-------9---0---9---11-11-11-11-|

Second Verse (Just showing B to save space)

B|--14p0-0-12p0-0-9p0h9p0-12p0--|x4


B|--16p0-0-12p0-0-9p0h9p0-12p0--|x3   |--16p0-0-12p0-0-17p0-16p0-14p0--|


B|--14p0-0-12p0-0-9p0h9p0-12p0--|x4   |--16p0-0-12p0-0-9p0h9p0-12p0--|x3


E|-------------------------|
B|--16p0-0-12p0-0-4--4--4--|
G|----------------5--5--5--|
D|----------------x--x--x--|
A|----------------3--3--3--|
E|----------------4--4--4--|

Then Play the Pre Chorus

Then the Chorus (x2)

Chorus Extention
E|----------------------------------------------------------------|
B|----------------------------------------------------------------|
G|--9--9--9--x-9----13-13-13---13----6--6--6--x-6----6--6--6-8----|x2
D|--x--x--x--x-x----x--x--x--x-x-----x--x--x--x-x----x--x--x-x----|
A|--7--7--7--x-7----11-11-11-x-11----4--4--4--x-4----4--4--4-6----|
E|--9--9--9--x-9----12-12-12-x-12----5--5--5--x-5----5--5--5-7----|

E|---------------------------------------------------|
B|---------------------------------------------------|
G|--9--9--9--x-9----13-13-13---13----4------6--------|
D|--x--x--x--x-x----x--x--x--x-x-----6------7--------|
A|--7--7--7--x-7----11-11-11-x-11----6------7--------|
E|--9--9--9--x-9----12-12-12-x-12----4------5--------|

(Clean)
E|------------------------------------------------------------------------------|
B|------------------5---------------------------5------------7------------7-----|
G|---4------6---------6--------4------6-----------6------------8------------8---|
D|---6------7------------------6------7-----------------------------------------|
A|---x------x------------7-----6------7-------------7----6------------6---------|
E|---4------5------------------4------5-------5--------7---7--------7---7-------|

E|------------------------------7----------------------------|
B|------9-----------------------9----------------------------|
G|------9------4----6-----------9------4---------6-------6---|
D|-------------6----7------------------6---------7-------7---|
A|---7-----------------------7--------------7--7-7--7--7-7---|
E|---0------4-------5--------0------4-------5--5----5--5-----|

E|--------------------------------------------|
B|--------9--------9-----------12---------7---|
G|--------9--------9-----------13---------8---|x2
D|--------------------------------------------|
A|---7--7-----7--7------11--11------6--6------|
E|---9--9-----9--9------12--12------7--7------|

E|-----------------------------------------------------------|
B|--------9--------9-----------------------------------------|
G|--------9--------9--------11------11------11---11--11--11--|
D|--------------------------x-------x-------x----x---x---x---|
A|---7--7-----7--7------9---9---9---9---9---9----9---9---9---|
E|---9--9-----9--9------11------11------11-------11--11--11--|

(Distorted - listen to track for strumming pattern)
E|--------------------------------------------------------------------------------------------|
B|---5----------4-----2------5----------4-----2------7-------4-----2------7-------4-----2-----|
G|---4----------4-----3------4----------4-----3------8-------4-----2------8-------4-----2-----|x2
D|---2----------x-----4------2----------x-----4------x-------x-----4------x-------x-----4-----|
A|---2----------2-----4------2----------2-----4------6-------2-----4------6-------2-----4-----|
E|---0----------4-----2------0----------4-----2------7-------4-----2------7-------4-----2-----|


E|---------------------------------------------------|
B|---5----------4-----2------5----------4-----2------|
G|---4----------4-----3------4----------4-----3------|x2
D|---2----------x-----4------2----------x-----4------|
A|---2----------2-----4------2----------2-----4------|
E|---0----------4-----2------0----------4-----2------|
              

               (Clean)
E|----------------------------------------------------------------|
B|---0------------------------------------------------------------|
G|---1-----------4-----3-----4----4--------4------3---------------|
D|---2---------6---6-4---4/6-6----6----------6------4-------------|
A|---2------------------------------------------------/11---------|
E|---0---------4-----2-------0--0------0-4-----2------------------|


And that's it. Hopefully that all makes sense




Then there's the other song on the end which is something like this:

E|-----------------------------------------------------------------------------------|
B|-----------------------------------------------------------------------------------|
G|--4------------------4-------------------4---4----------------4---4----------------|
D|--2-----2------------2------2------------2---2----2-----------2---2----2-----------|
A|--2-----3------------2------3------------2--------3-----------2--------3-----------|
E|--0-----3------------0------3------------0--------3-----------0--------3-----------|

E|------------------0--------------------------------|
B|---5----5---------1--------------------------------|
G|---4----4---x-x---0--------------4-----------------|
D|---2----2---x-x---2--------------2------2----------|
A|---2--------x-x---3--------------2------3----------|
E|---0--------------3--------------0------3----------|

(Listen to track for strumming patterns)
E|----------------------------------------------------------------|
B|-----------------1------------3-----------7------7---7h8--------|
G|---4-------------0------------0-----------0---------------------|
D|---2-------------2------------4-----------x---------------------|
A|---2-------------3------------5-----------7---------------------|
E|---0--------------------------------------8---------------------|

E|----------------------------------------------------------------|
B|-----------------1------------3-----------7------7---7h8--------|
G|---4-------------0------------0-----------0---------------------|
D|---2-------------2------------4-----------x---------------------|
A|---2-------------3------------5-----------7---------------------|
E|---0-------------3------------------------8---------------------|

E|----------------------------------------------------------------|
B|-----------------3------------3-----------5---------------------|
G|---4-------------0------------0-----------6---------------------|
D|---2-------------0------------4-----------7---------------------|
A|---2-------------x------------5-----------7---------------------|
E|---0-------------3------------------------5---------------------|

E|-----------------------------0-----------2----------------------|
B|-----------------------------1-----------3----------------------|
G|-----------------------------0-----------0----------------------|
D|--5\4--4---4-4\2--2--2-2--2--2-----------4----------------------|
A|-----------------------------3-----------5----------------------|
E|--3\2--2---2-2\0--0--0-0--0-------------------------------------|

E|-----------------------------0-----------2-----------0------------------------|
B|-----------------------------1-----------3-----------0------------------------|
G|-----------------------------0-----------0-----------9------------------------|
D|--5\4--4---4-4\2--2--2-2--2--2-----------4-----------9------------------------|
A|-----------------------------3-----------5-----------7------------------------|
E|--3\2--2---2-2\0--0--0-0--0--------------------------0------------------------|

E|---0---------------2--------------------------------------------|
B|---1---------------3--------------5-----------------------------|
G|---0---------------0--------------6-----------------------------|
D|---2---------------4--------------7-----------------------------|
A|---3---------------5--------------7-----------------------------|
E|----------------------------------5-----------------------------|

E|-----------------------------------------------------------------------------------------------------|
B|-----------------------------------------------------------------------------------------------------|
G|----4----------------------------------------------------------------------------------0-------------|
D|----2------2-----------5---5--x-x--4--2-----------5---5--x-x--4-------2--2----------2--2--x-x--2-----|
A|----2------3-----------2---2--x-x--3--------------2---2--x-x--3--x-x--3--3----------2-----x-x--3-----|
E|----0------3-----------0-----------3--------------0-----------3--x-x--3--3----------0----------3-----|


There are other parts over the top of this but they are pretty easy to work out if needed.




Добавлено: 16.07.2014
Другие композиции этого автора:
Другие материалы по этой песне:

Страница создана 16.07.2014
https://primanota.ru/arcane-roots/slow-chords.htm

Привет, гитарист!

Тебе подарок от сайта PrimaNota.ru

Забрать подарок
ВАМ ПОДАРКИ ОТ ПРОЕКТА
"ГИТАРНАЯ РЕВОЛЮЦИЯ"