Войти:  Facebook Google Twitter Vk Yandex Mail.ru
PrimaNota.ru - самый крупный в мире бесплатный архив песенных текстов, аккордов, табулатур и нот


Apocalyptica - Mig - табы

Печатать
ViraMusic 2019 в Петербурге 4 апреля 2019! Скидка 10%!

Mig

  • аккорды, текст

(Bass intro)

e|don't use
b|---------|---------|
g|---------|---------|
d|-4--0----|-3--0----| Repeat x2
a|---------|---------|
D|4-4-0----|3-3-0----|

e|don't use
b|---------|---------|
g|-4--0----|-3--0----|
d|---------|---------| Repeat x2
a|4-4-0----|3-3-0----|
D|---------|---------|

Repeat both lines twice in order (Line 1, Line 2, Line 1, Line 2. Do
that twice)

e|don't use
b|-4--0----|-3--0--3-3|
g|---------|----------|
d|4-4-0----|3-3-0-----| Repeat x2
a|---------|----------|
D|---------|----------|

(Bass ending)
   
https://primanota.ru/apocalyptica/mig-chords.htm

Привет, гитарист!

Тебе подарок от сайта PrimaNota.ru

Забрать подарок
ВАМ ПОДАРКИ ОТ ПРОЕКТА
"ГИТАРНАЯ РЕВОЛЮЦИЯ"