Войти:  Facebook Google Twitter Vk Yandex Mail.ru
PrimaNota.ru - самый крупный в мире бесплатный архив песенных текстов, аккордов, табулатур и нот


Apocalyptica - Hall Of The Mountain King - аккорды, текст, табы

Печатать
Лучшая metal-группа Петербурга

Hall Of The Mountain King

  • аккорды, текст
  • gtp-табы
  • ноты
Тональность: 
0
Проще! Аппликатуры

Авторы музыки: Edvard Grieg

Hall Of The Mountain King
Apocalyptica
E|--------0-2---2--1---1--0---0---------------|
B|-0-2-3------3------2------1-----------------|
G|--------------------------------------------|
D|--------------------------------------------|
A|--------------------------------------------|
E|--------------------------------------------|
 
E|--------0-2---2--7--5--2---2--5-------------|
B|-0-2-3------3------------3------------------|
G|--------------------------------------------|
D|--------------------------------------------|
A|--------------------------------------------|
E|--------------------------------------------|
   
https://primanota.ru/apocalyptica/hall-of-the-mountain-king-chords.htm

Привет, гитарист!

Тебе подарок от сайта PrimaNota.ru

Забрать подарок
ВАМ ПОДАРКИ ОТ ПРОЕКТА
"ГИТАРНАЯ РЕВОЛЮЦИЯ"