Войти:  Facebook Google Twitter Vk Yandex Mail.ru
PrimaNota.ru - самый крупный в мире бесплатный архив песенных текстов, аккордов, табулатур и нот


Apocalyptica - For Want Of Ink - табы

Печатать
ViraMusic 2019 в Петербурге 4 апреля 2019! Скидка 10%!

For Want Of Ink

  • аккорды, текст

Dropped D tuning
Boost off

e|don't use
b|don't use
g|don't use
d|--------4------|
a|--4-5-4---4-5-4| Repeat x2
D|4--------------|

e|don't use
b|don't use
g|don't use
d|---------6-----|
a|--6-7-6---6-7-6| Repeat x2
D|6--------------|

Repeat both lines

e|don't use
b|don't use
g|don't use
d|--------4------|--------5------|--------6------|--------7------|
a|--4-5-4---4-5-4|--5-6-5---5-6-5|--6-7-6---6-7-6|--7-8-7---7-8-7|
D|4--------------|5--------------|6--------------|7--------------|

e|don't use
b|don't use
g|don't use
d|--------4----------|4-------4
a|--4-5-4---4-5-----4|--4-5-4---4-5
D|4------------------|

e|don't use
b|don't use
g|don't use
d|4-------|
a|--4-5-4-| Repeat x4
D|--------|

e|don't use
b|don't use
g|don't use
d|5-------|
a|--4-5-4-| Repeat x4
D|--------|

e|don't use
b|don't use
g|don't use
d|6-------|
a|--4-5-4-| Repeat x4
D|--------|

e|don't use
b|don't use
g|don't use
d|4-------4----|
a|--4-5-4---4-5|
D|-------------|

Boost on

Repeat song
   
https://primanota.ru/apocalyptica/for-want-of-ink-chords.htm

Привет, гитарист!

Тебе подарок от сайта PrimaNota.ru

Забрать подарок
ВАМ ПОДАРКИ ОТ ПРОЕКТА
"ГИТАРНАЯ РЕВОЛЮЦИЯ"