Войти:  Facebook Google Twitter Vk Yandex Mail.ru
PrimaNota.ru - самый крупный в мире бесплатный архив песенных текстов, аккордов, табулатур и нот


Антонио Вивальди - Presto (времена года - лето) - табы

Печатать
ViraMusic 2019 в Петербурге 4 апреля 2019! Скидка 10%!

Смотреть табы "Presto (времена года - лето)"

Вариант

[E||---------------------------|---------------------------|
B||---------------------------|---------------------------|
G||--12-0-0-0-0-0-0-0-0-0-0-0-|--10-0-0-0-0-0-0-0-0-0-0-0-|
D||---------------------------|---------------------------|
A||---------------------------|---------------------------|
E||---------------------------|---------------------------|

--------------------------|-----------------------|------|
--------------------------|-----------------------|------|
--8-0-0-0-0-0-0-0-0-0-0-0-|--7-0-0-0-0-0-0-0-0----|------|
--------------------------|-----------------------|------|
--------------------------|-----------------------|------|
--------------------------|-----------------------|------|

---------------------------|---------------------------|
---------------------------|---------------------------|
---------------------------|---------------------------|
--12-0-0-0-0-0-0-0-0-0-0-0-|--10-0-0-0-0-0-0-0-0-0-0-0-|
---------------------------|---------------------------|
---------------------------|---------------------------|

--------------------------|-----------------------|
--------------------------|-----------------------|
--------------------------|-----------------------|
--8-0-0-0-0-0-0-0-0-0-0-0-|--7-0-0-0-0-0-0-0-0----|
--------------------------|-----------------------|
--------------------------|-----------------------|

----------------|-------------------------|
----------------|-------------------------|
----------------|---7-5-3-----------------|
----------------|---------7-5-4-----------|
----------------|---------------7-5-3-----|
----------------|---------------------6-5-|

--------------------------|--------------------------|
--------------------------|----8-6-4-----------------|
----7-5-3-----------------|----------7-5-3-----------|
----------7-5-4-----------|----------------7-5-3-----|
----------------7-5-3-----|----------------------6-5-|
--3-------------------6-5-|--3-----------------------|

--------------------------|-------------------------------|
----8-6-4-----------------|----11-10-8--------------------|
----------7-5-3-----------|------------10-8-7-------------|
----------------7-5-------|-------------------10-8-7------|
--3-----------------8-6-5-|--------------------------10-8-|
--------------------------|--8----------------------------|

----6-5-3-----------------|----10-8-6------------------|
----------6-4-3-----------|-----------10-8-7-----------|
----------------5-3-2-----|------------------9-7-5-----|
----------------------5-3-|------------------------8-7-|
--6-----------------------|--6-------------------------|
--------------------------|----------------------------|

----10-8-6------------------|----10-8-6------------------|
-----------10-8-7-----------|-----------10-8-7-----------|
------------------9-7-5-----|------------------9-7-5-----|
--5---------------------8-7-|--5---------------------8-7-|
----------------------------|----------------------------|
----------------------------|----------------------------|

----10-8-6------------------|--------------------------|
-----------10-8-7-----------|--------------------------|
------------------9-7-5-----|--7-0-0-0-7-0-0-0-7-0-0-0-|
--5---------------------8-7-|--------------------------|
----------------------------|--------------------------|
----------------------------|--------------------------|

------------------5----|------------------5----|
------------5-7-8------|------------5-7-8------|
--------5-7------------|--------5-7------------|
--0-7-8----------------|--0-7-8----------------|
-----------------------|-----------------------|
-----------------------|-----------------------|

---------------------6----|-------------------8-10----|
--------------7-8-10------|-----------8-10-11---------|
----------7-8-------------|----7-9-11-----------------|
-----8-10-------------
   
https://primanota.ru/antonio-vivaldi/presto-vremena-goda-leto.htm

Привет, гитарист!

Тебе подарок от сайта PrimaNota.ru

Забрать подарок
ВАМ ПОДАРКИ ОТ ПРОЕКТА
"ГИТАРНАЯ РЕВОЛЮЦИЯ"