Войти:  Facebook Google Twitter Vk Yandex Mail.ru
PrimaNota.ru - самый крупный в мире бесплатный архив песенных текстов, аккордов, табулатур и нот


Антонио Вивальди - Linverno Winter 2Nd Movement - табы


Capo on the 3rd fret.
The notes on the tab are not relative to the capo, which means that if I put 
a "3" you have to play the open string.
I transcribed the song by ear from this video 
https://www.youtube.com/watch?v=STotW5CLb60



e|-----6-4-3-------|-----------------|-4-3---------4---|-6p4h6p4---3-------3---|-----3-4-6---8/10-10-|
B|-4-----------6-4-|-6---------------|-----6-4-3-------|-----------------------|-6-------------------|
G|-----3-------3---|-----3-------3---|-----3-------3---|-----------3-------3---|-----3-------3-------|
D|---5---5---5---5-|-----3-------3---|-------3---3---3-|---------5---5---5---5-|---3---3---3------3--|
A|-6-------6-------|---5---5---5---5-|---5-------------|-6-------------6-------|-5-------5-----------|
E|-----------------|-6-------6-------|-6-------6-------|-----------------------|---------------------|

                                         0:30                                        
e|-------3-4---6/8-8-|---------3---4-6-|-------------3---|-----------------|-----------------|
B|-4---6-----4-3-----|-3---4-6---6-4-3-|-----3-4-6-------|-3---------------|-6---------------|
G|-----5-----------8-|-----3-----------|-5---------5-3-8-|-----------3---3-|-----------3---3-|
D|---5---5-----------|---3---3---------|-----3---------8-|-----3-------7---|-----3-------7---|
A|-3-------3---------|-----------------|---3---3---------|---5---5---5-8-5-|---5---5---------|
E|-------------------|-6-------6-------|-4-------5-------|-6-------6-------|-6-------6-------|
                                   
e|-----------------|-5---------------|-6-----------6---|---6-5-3-----------|
B|-8---------------|-----------6-4-6-|-----------------|---------6-4-3-----|
G|-----3-----3---3-|-----------------|-----3-----------|--5------------5-3-|
D|---5---5-----7---|---3-7-3---------|-----3-------3---|-3---------3-------|
A|-6-------6-------|-6-------6-------|---5---5---5---5-|-------------------|
E|-----------------|-----------------|-6-------6-------|-------------------|

                1:00 
e|-----------------------------------------------------------|-------------------|-----------------|
B|---3-----3---3---3---3---3---3---3---3---3---3---3---3-----|-------------------|-----6-4-3-------|
G|-----5-----5-------5-------5-------5-------5-------5---5-3-|---3---------------|-3-----------5-3-|
D|---------------3-------------------------------3-----------|-------3-------3---|-----3-------3---|
A|-------3---------------3---------------3-------------------|-----5---5---5---5-|---5---5---5---5-|
E|-5-----------------------------5---------------------------|-6---------6-------|-6-------6-------|

                                                                                             1:30
e|-----------------|-----------------|-----------------------|-4-3---------4---|-6p4h6p4---3-------3---|
B|-----------------|-4-3---------4---|-6p4h6p4---3-----------|-----6-4-3-------|-----------------------|
G|-5---------------|-----5-3---------|-------------------3---|-----------------|-----------3-------3---|
D|-----3-------3---|-----3---7---3---|-----------3-------3---|-----3-------3---|---------5---5---5---5-|
A|---3---3---3---3-|---3---3---3---3-|---------5---5---5---5-|---5---5---5---5-|-6-------------6-------|
E|-5-------5-------|-5-------5-------|-6-------------6-------|-6-------6-------|-----------------------|

e|-------------3-4-|---------3---4-6-|-------3-4---6/8-8-|-----------------|---------3-4-6-3-|
B|-----3-4-6-------|-3---4-6---------|-4---6-----4-3-----|-3-----------3-4-|-6-3-------------|
G|-5-----------5---|-----------3---3-|-----5-----------8-|-----3-------3---|-----5-3---------|
D|-----6-----3---3-|-----3-----------|---5---5-----------|---3---3---3---3-|-----3-------5---|
A|---6---6---------|---5---5-----5---|-6-------3---------|-----------------|---5---5-6-----6-|
E|-4-------4-------|-6-------6-------|-------------------|-6-------6-------|-6---------------|

                           2:00   
e|-----------------|---------3-4-6-3-|---------------6-|-3---------------------------------------|
B|-6-----------3-4-|-6-3-------------|-6-----------6---|-----6-4---4---4---4---4---4---4-------4-|
G|-----3-------3---|-----5-3---------|-----3-------3---|-----3-------7-------7-------7---7---7---|
D|-----3-----3---3-|-----3-------5---|-----3-----3---3-|---5---5-----------------3---------------|
A|---5---5---------|---5---5-6-----6-|---5---5---------|-6---------------5-----------------5-----|
E|-6-------6-------|-6---------------|-6-------6-------|---------6-------------------------------|

                 x2                                x4
e|---------------------------------|---------------------------------|-------|---|
B|---6---6---6---6---6---6---6---6-|---6---6---6---6---6---6---6---6-|-----6-|-4-|
G|-----8-------8---3---8-------8---|-----8-------8-------8-------8---|----3--|---|
D|---------5---------------5-------|---------------------------------|---5---|---|
A|-6-------------------------------|-----------------6---------------|--6----|---|
E|---------------------------------|-3-------6---------------6-------|-3-----|---|

************************************

| /   Slide up
| h   hammer-on
| p   pull-off

************************************
https://primanota.ru/antonio-vivaldi/linverno-winter-2nd-movement.htm

Привет, гитарист!

Тебе подарок от сайта PrimaNota.ru

Забрать подарок
ВАМ ПОДАРКИ ОТ ПРОЕКТА
"ГИТАРНАЯ РЕВОЛЮЦИЯ"