Войти:  Facebook Google Twitter Vk Yandex Mail.ru
PrimaNota.ru - самый крупный в мире бесплатный архив песенных текстов, аккордов, табулатур и нот


Антонио Вивальди - Linverno Winter 1St Movement - табы


Capo on the 3rd fret.
The notes on the tab are not relative to the capo, which means that if I put 
a "3" you have to play the open string.

I divided the song in eight parts and added the timeframe where they start 
in this video https://www.youtube.com/watch?v=dD3pzSAxNcs


[1º part] (0:00)

   x8  x8  x8   x8       x8     x8      x8      x8      x8       x8     x4      x4
e|---|---|---|-6h8p6-|-6h8p6-|-4h6p4-|-------|-------|-------|-------|-------|-------|
B|---|---|---|-8-----|-8-----|-6-----|-------|-4h6p4-|-3h4p3-|-4h6p4-|-3h4p3-|-3h4p3-|
G|---|-3-|-6-|-6-----|-6-----|-5-----|-6h8p6-|-5-----|-------|-5-----|-5-----|-4-----|
D|---|-5-|-5-|-3-----|-------|-3-----|-8-----|-3-----|-5-----|-3-----|-5-----|-------|
A|-8-|-8-|-8-|-------|-7-----|-------|-8-----|-------|-8-----|-------|-------|-------|
E|---|---|---|-------|-------|-------|-------|-------|-------|-------|-------|-3-----|


[2º part] (0:40)

              x2                 x2             x3                                                     x4
e|---|-8-8-------------|--8-6--------------|-----------|--------------------------------------------|-----|
B|---|-----8-8---------|------9-8-6--------|-----------|--------------------------------------------|-----|
G|-5-|---------8-8-5-5-|------------8-7-5--|----5-8p5--|----5-8---5h7p5h7p5h7p5h7p5h7p5h7p5h7p5h7p5-|-----|
D|---|-----------------|-------------------|--5--------|--5-----------------------------------------|--5--|
A|-3-|-----------------|-------------------|-----------|--------3----------3----------3----------3--|--3--|
E|---|-----------------|-------------------|-----------|--------------------------------------------|-----|

                x2                  x2             x3               (speed is the same as above)       x4
e|---|-11-11-8-8---------|-11-10-8-------------|-----------|-----------------------------------------|---|
B|---|-----------8-8-----|---------11-9-8------|-----------|-----------------------------------------|---|
G|-8-|---------------8-8-|----------------10-8-|----8-12p8-|----8-12--8h10p8h10h10p8h10h10p8h10p8h10-|---|
D|---|-------------------|---------------------|-10--------|-10--------------------------------------|-5-|
A|-3-|-------------------|---------------------|-----------|---------3----------3----------3------3--|-3-|
E|---|-------------------|---------------------|-----------|-----------------------------------------|---|

               x2                  x2                           x3                                   
e|----|15-15-------------------|-15-13-------------------|-------------|------------------------------------|
B|----|------16-16-13-13-------|-------16-15-13----------|-------13----|-------13---------------------------|
G|-12-|------------------12-12-|----------------15-13-12-|----12----12-|----12------------------------------|
D|----|------------------------|-------------------------|-13----------|-13-------10h12p10h12p10h12p10h12p10|
A|-3--|------------------------|-------------------------|-------------|----------3-------3-------3-------3-|
E|----|------------------------|-------------------------|-------------|------------------------------------|


[3º part] (1:04)

   x4   x4  x4    x4    x4    x4    x4        x10  x4       x10  x4       x10  x4       x10  x4     
e|----|---|-4---|-6---|-8---|-9---|-9----|---|---|-4---|---|---|-3---|---|---|-----|---|---|-----|
B|----|-5-|-6---|-8---|-6---|-6---|-12---|---|-8-|-6---|---|-6-|-4---|---|-4-|-6---|---|---|-5---|
G|-6--|-5-|-5---|-6---|-6---|-6---|-10---|-9-|-9-|---5-|-6-|-6-|---6-|-5-|-5-|---5-|-3-|-6-|-5---|
D|-10-|-8-|---3-|---3-|---3-|---3-|----3-|---|---|-3---|---|---|-----|---|---|-----|---|-8-|---8-|
A|----|---|-----|-----|-----|-----|------|-3-|---|-----|---|---|-6---|---|---|-4---|---|---|-3---|
E|----|---|-----|-----|-----|-----|------|---|---|-----|-6-|---|-----|-4-|---|-----|-3-|---|-----|


[4º part] (1:30)

e|-----------------|-3---3-4-3-4---3-|-4p3-4-6-4-6-3h4-|-6p4-6-8-6-8-4h6-|-8-|
B|-6p5-6-8-6-8-5h6-|---6---------6---|-----------------|-----------------|---|
G|-----------------|-----------------|-----------------|-----------------|---|
D|-3---------------|-----------------|-3---------------|-5---------------|-6-|
A|-----------------|-7---------------|-----------------|-----------------|---|
E|-----------------|-----------------|-----------------|-----------------|---|

      x2                       x4                 x2       
e|----------13-|----------|-13----------|------------8-9-11-13-|----|
B|-13-14-16----|-13-14-16-|----16-14-13-|-----8-9-11-----------|-14-|
G|-------------|----------|-------------|-10-------------------|-3--|
D|-------------|----------|-------------|----------------------|----|
A|-------------|----------|-------------|----------------------|----|
E|-------------|----------|-------------|----------------------|----|

      x2                       x4                 x2       
e|----------11-|----------|-11----------|-------------8-9-11--|-8-|
B|-11-13-14----|-11-13-14-|----14-13-11-|------8-9-11---------|---|
G|-------------|----------|-------------|-8-10----------------|---|
D|-------------|----------|-------------|---------------------|-6-|
A|-------------|----------|-------------|---------------------|---|
E|-------------|----------|-------------|---------------------|---|

      x2                       x4                       
e|---------9-|---------|-9----------|----------8--------|---------6-------|
B|-9-11-13---|-9-11-13-|----13-11-9-|-8-11-9-8---11-9-8-|-6-9-8-6---9-8-6-|
G|-----------|---------|------------|-9-----------------|-7-------6-------|
D|-----------|---------|------------|-------------------|-----------------|
A|-----------|---------|------------|-------------------|-----------------|
E|-----------|---------|------------|-------------------|-----------------|

                  x2
e|-------------------------6-------|---6p4-6----------------------------|
B|-5---------------5-8-6-5---8-6-8-|-5-------5--8p6-8-------------------| 
G|---5---5---5---5-----------------|------------------3-6p5-6-----------| 
D|-----8---5---8-------------------|----------------------------5p3-5---| 
A|-3---------------3---------------|-3------------------------7---------| 
E|---------------------------------|----------------------------------6-|  


[5º part] (1:55) 

This part isn't very accurate, feel free to change it or give suggestions.

  x12                                     x12(only the second chord)                                     
e|-3-|---------------------------------|-5-5-|-6-------------------------------|
B|-5-|-----------------6---------------|---6-|---3---3-6-3---3---3---3-6-3---3-|
G|---|---5p3h5---5p3h5---5p3h5---5p3h5-|-----|-----5-------5---3---5-------5---|
D|---|-3-------6---------------6-------|-3---|---------------------------------|
A|---|---------------------------------|-----|---------------------------------|
E|---|---------------------------------|-----|-6-------------------------------|

   x12 (as above)                          x12 (as above)                            x12  x12 (both as above) 
e|-7-7-|-8---------------8---------------|-----|---------------------------------|-----|-----|
B|-----|-----3---8---3-------3---8---3---|-6-6-|---------------------------------|-4-4-|-3-3-|
G|-----|---8---8---8---8---8---8---8---5-|---7-|-8-------8-------8-------8-------|---5-|---3-|
D|-----|---------------------------------|-----|---5-3-5---5-3-5---5-3-5---5-3-5-|-----|-----|
A|-----|-3-------------------------------|-----|-6-------------------------------|-----|-----|
E|-3---|---------------------------------|-6---|---------------------------------|-4---|-6---|


[6º part] (2:11)

             x4  x4   x4   x4    x4    x4     x4      x4    x4     x4 
e|---------|---|----|----|----|------|-----|-------|-----|-------|-----|-3-|
B|-4-------|---|----|----|----|------|-----|-------|-4-4-|-3h4p3-|-9-9-|---|
G|---------|---|----|-3--|-3--|-3hp3-|-6-6-|-5h6p5-|-5---|-3-----|-7---|-3-|
D|---------|-3-|-3--|-3--|-3--|-5----|-5---|-------|-3---|-3-----|-3---|---|
A|-6-6-6-6-|-6-|-11-|-11-|-11-|-6----|-6---|-6-----|-----|-------|-----|-6-|
E|---------|---|-13-|-11-|-10-|------|-----|-4-----|-----|-6-----|-----|---|

e|11-11-------------------------9----|-13-13-------------------------11-10-|-15-15----------------------10-13|
B|------11-11----------------11---13-|-------13-13----------------13-------|-------15-15-12-12-------12------|
G|------------12-12-------12---------|-------------14-14-------14-------3--|-------------------12-12---------|
D|------------------13-13------------|-------------------15-15----3--------|----------------------9----------|
A|---------------------10---------11-|----------------------12-------------|----------------------------10---|
E|---------------------------11------|-------------------------------------|---------------------------------|


[7º part] (2:42)   

     x4     x4       x4      x4      x4       x4     x4      x4
e|-11-11-|-10-10-|-10-10-|-15-15-|-15-15-|-15-15-|-13-13-|-11-11-| The violin plays the e|-11-11-| part.
B|-13-13-|-13-13-|-11-11-|-11-11-|-------|-------|-------|-13-13-|                      B|-13-13-|
G|-------|-------|-------|-------|-12-12-|-13-13-|-12-12-|-------| 
D|-------|-3-----|-------|-------|-------|-------|-------|-------| It actually does it 4 times each bar, but
A|-3-----|-------|-10----|-------|-3-----|-------|-------|-------| I think it is too fast for the guitar. 
E|-------|-------|-------|-3-----|-------|-10----|-11----|-11----| 

     x2    x2       x2     x2       x2       x2      x2     x2     x2
e|-9--9--|-9--9--|-------|-------|-------|-------|-------|-------|-3-3-|
B|-11-11-|-11-11-|-13-13-|-13-13-|-11-11-|-11-11-|-9--9--|-9--9--|-6-6-|
G|-------|-------|-15-15-|-13-13-|-13-13-|-12-12-|-12-12-|-10-10-|-----|
D|-3-----|-------|-------|-------|-------|-------|-3-----|-3-----|-----|
A|-------|-10----|-11----|-11----|-------|-------|-------|-------|-----|
E|-------|-------|-------|-------|-10----|-11----|-------|-------|-7---|

   x2    x2    x2    x2     x2   x2    x2    x2    x2     x2    x2 
e|-3-3-|-----|-----|-----|-----|-----|-4-4-|-6-6-|-4-4-|-3-3-|-----|
B|-----|-6-6-|-6-6-|-5-5-|-6-6-|-8-8-|-6-6-|-6-6-|-6-4-|-6-6-|-5-5-|
G|-8-8-|-8-8-|-6-6-|-5-5-|-5-5-|-5-5-|-----|-----|-----|-----|-6-6-|
D|-----|-----|-----|-----|-----|-----|-----|-----|-----|-----|-----|
A|-3---|-4---|-4---|-3---|-3---|-3---|-3---|-4---|-4---|-4---|-4---|
E|-----|-----|-----|-----|-----|-----|-----|-----|-----|-----|-----|


[8º part] (3:14) 

      x10  x4       x10  x4       x10  x4       x10    x4          x6                 x6     
e|---|---|-4---|---|---|-3---|---|---|-----|---|---|---3h6p3-|-4-|-4-|-4-4-4-4--|-3-|-3-|-3-3-3-3-|
B|---|-8-|-6---|---|-6-|-4---|---|-4-|-6---|---|---|-5-------|---|-6-|-6-6-6-6--|---|-6-|-6-6-6-6-|
G|-9-|-9-|---5-|-6-|-6-|---6-|-5-|-5-|---5-|-3-|-6-|---------|---|---|----------|---|---|---------|
D|---|---|-3---|---|---|-----|---|---|-----|---|-8-|---------|-3-|---|-3---3----|---|---|---------|
A|-3-|---|-----|---|---|-6---|---|---|-4---|---|---|-3-------|---|---|----------|---|---|---------|
E|---|---|-----|-6-|---|-----|-4-|---|-----|-3-|---|---------|---|---|----------|-6-|---|-6---6---|

       x6                x6               x6                 x6      
e|-3-|-3-|-3-3-3-3-|---|---|---------|---|---|---------|---|---|---------|---|
B|---|-5-|---------|-6-|---|---------|---|---|---------|---|---|---------|---|
G|---|---|---------|---|-5-|-5-5-5-5-|---|---|---------|---|---|---------|---|
D|---|---|---------|-3-|-6-|-6-6-6-6-|-5-|-5-|-5-5-5-5-|-5-|-5-|-5-5-5-5-|-3-|
A|-3-|---|-3---3---|---|---|-8---8---|---|---|---------|-3-|---|-3---3---|-3-|
E|---|---|---------|---|---|---------|-6-|---|-6---6---|---|---|---------|-4-|


*****************************************************************************
h   hammer-on
p   Pull-off
*****************************************************************************
https://primanota.ru/antonio-vivaldi/linverno-winter-1st-movement.htm

Привет, гитарист!

Тебе подарок от сайта PrimaNota.ru

Забрать подарок
ВАМ ПОДАРКИ ОТ ПРОЕКТА
"ГИТАРНАЯ РЕВОЛЮЦИЯ"