Войти:  Facebook Google Twitter Vk Yandex Mail.ru
PrimaNota.ru - самый крупный в мире бесплатный архив песенных текстов, аккордов, табулатур и нот


Антонио Вивальди - Largo From Concerto In D Major Rv 93 - табы


Listen to https://www.youtube.com/watch?v=grgiE2LxTxk to figure out the rhythm.


e|----2--3--5-----2--5--2--0--------0-----7--5--3--2--5-----2--5--2--0-----0-----5-|
B|-3-----------3--------------2--3-----------------------3--------------3----------|
G|-------------------------------------2--------------------------------------2----|
D|---------------------------------------------------------------------------------|
A|---------------------------------------------------------------------------------|
E|---------------------------------------------------------------------------------|

e|-5--2--0-----5--2--0-----7--5--7--7--7--5--7--7--7--0--2--0--7--0--2--0--5--3--5--5--5--3--5--5-|
B|----------3-----------3-------------------------------------------------------------------------|
G|------------------------------------------------------------------------------------------------|
D|------------------------------------------------------------------------------------------------|
A|------------------------------------------------------------------------------------------------|
E|------------------------------------------------------------------------------------------------|

e|-5-----0-----5-----0-----4--5--7--5--4--2--0----------------0-----------5-----------0-----------|
B|----3-----3-----3-----3-----------------------3--2--2--0-------2--0--------2--0--------2--0-----|
G|----------------------------------------------------------2----------2-----------2-----------2--|
D|------------------------------------------------------------------------------------------------|
A|------------------------------------------------------------------------------------------------|
E|------------------------------------------------------------------------------------------------|

e|-5--7--5--7--5--7--5--7--5--4--2--0--------------5--------4---5------------|
B|-------------------------------------3--2--0--2-----2--0------5------------|
G|--------------------------------------------------------------6------------|
D|---------------------------------------------------------------------------|
A|---------------------------------------------------------------------------|
E|---------------------------------------------------------------------------|

e|-3--0-----0--3--7--3--0--------------0--3--2--0--------|
B|-------0--------------------2-----2--------------------|
G|-------------------------3-----------------------------|
D|-------------------------------4-----------------------|
A|-------------------------------------------------------|
E|-------------------------------------------------------|

e|----------2--2-----------------------2----------------------------|
B|-3--2--0--------0--2--0--2--0--2--0-----0--2--0--2--0--2--0-------|
G|------------------------------------------------------------------|
D|------------------------------------------------------------------|
A|------------------------------------------------------------------|
E|------------------------------------------------------------------|

e|-7-----------------------7-----------------------7----------------------------|
B|----7--8--7--8--7--8--7-----7--8--7--8--7--8--7-----7--5--3--2--0--0--3-------|
G|------------------------------------------------------------------------------|
D|------------------------------------------------------------------------------|
A|------------------------------------------------------------------------------|
E|------------------------------------------------------------------------------|

e|----2--3--5-----2--5--2--0--------0-----3--7--3--2--0-----5--5--7--5--3--2--0-------|
B|-3-----------3--------------2--3-----------------------3-----------------------3--2-|
G|-------------------------------------2----------------------------------------------|
D|------------------------------------------------------------------------------------|
A|------------------------------------------------------------------------------------|
E|------------------------------------------------------------------------------------|

e|----------7--7--9--7--5--3--2--0-----------------0--5--2----------------------2-----------------------|
B|-0--------------------------------3--2--0-----2-------------0-----0-----0-----------0-----0-----0-----|
G|----2--0-----------------------------------2-------------2--4--2--4--2--4--2-----2--4--2--4--2--4--2--|
D|------------------------------------------------------------------------------------------------------|
A|------------------------------------------------------------------------------------------------------|
E|------------------------------------------------------------------------------------------------------|

e|-0---------------------3-----------------------2--3--5-----0--------------------|
B|-----0-----0-----0-----------0-----0-----0--------------------3-----3----3------|
G|--2--4--2--4--2--4--2-----2--4--2--4--2--4--2-----------------------------------|
D|-------------------------------------------------------------------------4------|
A|-------------------------------------------------------------------------5------|
E|--------------------------------------------------------------------------------|
https://primanota.ru/antonio-vivaldi/largo-from-concerto-in-d-major-rv-93.htm

Привет, гитарист!

Тебе подарок от сайта PrimaNota.ru

Забрать подарок
ВАМ ПОДАРКИ ОТ ПРОЕКТА
"ГИТАРНАЯ РЕВОЛЮЦИЯ"