Войти:  Facebook Google Twitter Vk Yandex Mail.ru
PrimaNota.ru - самый крупный в мире бесплатный архив песенных текстов, аккордов, табулатур и нот


Andrea Bocelli - Romanza - аккорды, текст, табы

  • аккорды, текст
Тональность: 
0
Проще! Аппликатуры

Romanza
Andrea Bocelli
[Intro]

Fadd9  F  Fadd9 F


[Verse 1]

       Fadd9   F     Fadd9   F
Già la sento
               D7sus4  Dm7
Già la sento morir
         A#M7                C7   C7sus4  C7
Pero' e' calma sembra voglia dormire

            Fadd9   F
Poi con gli occhi
               D7sus4  Dm7
Lei mi viene a cercar
       A#M7     Gm7
Poi si toglie
               C7     Am7
Anche l'ultimo velo
               Dm7    A#M7
Anche l'ultimo cielo
               Gm7    C7
Anche l'ultimo bacio
F   A#M7   C7   F
Ah, forse colpa mia
Dm7             Gm7
Ah, forse colpa tua
                      C7  C7sus4  C7
E cosi' son rimasto a pensare.


[Verse 2]

      Fadd9   F
Ma la vita
              D7sus4  Dm7
Ma la vita cos'è
         A#M7
Tutto o niente
                    C7   C7sus4  C7
Forse neanche un perché

       Fadd9   F
Con le mani
               D7sus4  Dm7
Lei me viene a cercare
       A#M7     Gm7
Poi mi stringe
               C7     Am7
Lentamente mi lascia
               Dm7    A#M7
Lentamente mi stringe
               Gm7    C7
Lentamente mi cerca
F   A#M7   C7   F
Ah, forse colpa mia
Dm7             Gm7
Ah, forse colpa tua
                      C7  C7sus4  C7
E così sono rimasto a guardare


[Bridge]

Dm7

E|-------------------------|
B|-----6--6--6--6--8--8----|
G|-----7--7--7--7--7--7----|
D|-------------------------|
A|--5----------------------|
E|-----------------------5-|
       E lo chiamano amore

E|-----------------5--5----|
B|-----8--8--8--8--6--6----|
G|-----7--7--7--7--7--7----|
D|-------------------------|
A|--5----------------------|
E|-----------------------5-|
       E lo chiamano amore

E|-------------------------------------5-----5--5--5--5--5--|
B|-----6--6--6--6--6/8-----8--8--8--8--3-----3--3--3--3--3--|
G|-----7--7--7--7--7/9-----9--9--9--9-----------------------|
D|----------------------------------------------------------|
A|--5-------------------------------------------------------|
E|----------------------6-----------------3-----------------|
      E lo chiamano amore   e' una spina nel cuore

E|-----5--5--5--5--5--5--|
B|-----5--5--5--5--5--5--|
G|-----0--------------0--|
D|-----------------------|
A|--------------------4--|
E|--0--------------------|
      Che non fa dolore

Dm
E' un deserto
Dm/E
Questa gente
Dm/F
Con la sabbia
Dm/G
In fondo al cuore

C
E tu
Am7              Dm7
Che non mi senti più
G                CM7
Che non mi vedi più
FM7                  Bm7b5
Avessi almeno il coraggio
                E7
E la forza di dirti
             Am7
Che sono con te

 Dm7 G7    C            C  C#maj7b5
Ave Maria, ave Maria

A#M7  Gm7 C7  Am7

Dm7   A#M7   C  F
Ah, forse colpa mia
Dm7   A#M7   C  F
Ah, forse colpa mia
   Gm7                   C7
E' cosi' son rimasto cosi
                     Fadd9   F  Fadd9 F
Son rimasto cosi


[Verse 3]

(Play very quiet)

       Fadd9
Già la sento
            D7sus4
Che non può più sentir
      A#M7
In silenzio
               C7
Se ne andata a dormir
                  Fadd9 F  D7sus4 Dm7  A#M7  Gm7  C7add4  C7  F
E già andata a dormir   
https://primanota.ru/andrea-bocelli/romanza-chords.htm

Привет, гитарист!

Тебе подарок от сайта PrimaNota.ru

Забрать подарок
ВАМ ПОДАРКИ ОТ ПРОЕКТА
"ГИТАРНАЯ РЕВОЛЮЦИЯ"