Войти:  Facebook Google Twitter Vk Yandex Mail.ru
PrimaNota.ru - самый крупный в мире бесплатный архив песенных текстов, аккордов, табулатур и нот


Amr Diab - Tamally Ma'ak - текст песни, табы

Печатать
Поддержи лучшую metal-группу Петербурга!

Tamally Ma'ak

  • аккорды, текст

capo on 3
      strumming pattern :   http://www.youtube.com/watch?v=26DMY1zmYrg
------------------------------------------------------------ 
------------------------------------------------------------
You can play the G as G7 : 320001 (more accurate),also Dm as Dm7: xx0211
------------------------------------------------------------
 
مقدمه :
Am <- C <- G <- Dm <- Am <- Am
E <- C <- G <- Dm <- Am <- Am
 
  Am                          Dm          G         Cmaj7 - 032000
----------------------------------------------------------|
----------------------------------------------------------|
----------------------------0-------------0---------------|
--0-2-3-2---2-0-2-3-2---2-3---3---3-3-3-3-0-3-2-0-3-2-----|
----------------------------------------------------------|
----------------------------------------------------------|
  Am                          Dm          G         Cmaj7 > E
----------------------------------------------------------|
----------------------------------------------------------|
----------------------------0-------------0---------------|
--0-2-3-2---2-0-2-3-2---2-3---3---3-3-3-3-0-3-2-0-3-2-----|
----------------------------------------------------------|
----------------------------------------------------------|
 Am                             Dm
تملي معاك  و لو حتى بعيد عني بقلبي هواك....
G      
تملي معاك..
                                    E        
تملي في بالي و فقلبي و لا بنساك.. 
             c         G      Dm        
تملي وحشني لو حتى بكون وياك...
 
     F                Am
تملي حبيبي بشتقلك تملي عنيي تندهلك
 Am             E                Dm
ولو حولي كل الكون بكون يا حبيبي محتاجلك....
 
Dm                                    Am
تملي معاك ...معاك قلبي معك روحي يا اغلى حبيب ..
      E         G           
يا اغلى حبيب و مهما اتكون بعيد عني لقلبي قريب...
             c         G      Dm
آه يا عمري ال جاي والحاضر يا اغلى  نصيب
      F                Am
تملي حبيبي بشتقلك تملي عنيي تندهلك
 Am             E                Dm
ولو حولي كل الكون بكون يا حبيبي محتاجلك....
 
:Solo
  C <- G <- Dm <- E <- E <- G <- Dm <- Am <- Am   
Другие композиции этого автора:
Другие материалы по этой песне:
  • Аккорды, текст

https://primanota.ru/amr-diab/tamally-maak-chords.htm

Привет, гитарист!

Тебе подарок от сайта PrimaNota.ru

Забрать подарок
ВАМ ПОДАРКИ ОТ ПРОЕКТА
"ГИТАРНАЯ РЕВОЛЮЦИЯ"