Войти:  Facebook Google Twitter Vk Yandex Mail.ru
PrimaNota.ru - самый крупный в мире бесплатный архив песенных текстов, аккордов, табулатур и нот


Amesoeurs - Faiblesse Des Sens - табы

Играешь на гитаре? Зарабатывай! Ищем наставников по гитаре

Hey, I've only got parts of the song down. Try to figure more out yourself ;)

Intro:

e ---------------------------------|
B -------0-------------0-----------|
G -----5-------------5-----5-------|
D ---------------------------------|
A ---7-------------7---------------|
E -5-------------5-----------5-7---|

e -------------------------0-------|
B -------0-------------0-----0-----|
G -----5-------------5-------------|
D ---------------------------------|
A ---7-------------7---------------|
E -8-------------8-----------------|

Cool riff bit (it's played over the same thing, but an octave lower):

e -------------------------------------|
B -------------------------------------|
G -8-8-8-8-8-8-9-8---888-8-8-8-9-8-----|
D -------------------------------------|
A -------------------------------------|
E -------------------------------------|

e -------------------------------------|
B -------------------------------------|
G -11-11-11-11-11--9-8-----------------|
D ---------------------9---------------|
A -------------------------------------|
E -------------------------------------|

repeat for a bit, then:


e -15-15-15-15-12-12-12-12-15-15-15-15-12-12-12-12-|
B -------------------------------------------------|
G -------------------------------------------------|
D -------------------------------------------------|
A -------------------------------------------------|
E -------------------------------------------------|

e -20-20-20-20-17-17-17-17-15-15-15-15-12-12-12-12-|
B -------------------------------------------------|
G -------------------------------------------------|
D -------------------------------------------------|
A -------------------------------------------------|
E -------------------------------------------------|

the notes are correct, i just haven't bothered to find out how many times you strike 
haha. that's something you can figure out yourself.   
Другие композиции этого автора:
Другие материалы по этой песне:

https://primanota.ru/amesoeurs/faiblesse-des-sens-chords.htm

Привет, гитарист!

Тебе подарок от сайта PrimaNota.ru

Забрать подарок
ВАМ ПОДАРКИ ОТ ПРОЕКТА
"ГИТАРНАЯ РЕВОЛЮЦИЯ"