Войти:  Facebook Google Twitter Vk Yandex Mail.ru
PrimaNota.ru - самый крупный в мире бесплатный архив песенных текстов, аккордов, табулатур и нот


Alice In Chains - Heaven Beside You - аккорды, текст, табы, бас-таба

Печатать
ViraMusic 2019 в Петербурге 4 апреля 2019! Скидка 10%!

Heaven Beside You

  • аккорды, текст
  • gtp-табы
Тональность: 
0
Проще! Аппликатуры

Авторы музыки: Mike Inez, Jerry Cantrell
Авторы текста: Jerry Cantrell
Heaven Beside You
Alice In Chains
Heaven Beside You By Alice In Chains
Tabbed By Alex Kolaczenko
Tuning 1/2 Step Down

pm= Palm Mute

Intro 
* Bend Up and back down
    E            A               G
e-------------------------------------------|
b-------------------------------------------|
g-------------------------------------------|
d---------5*-----------0----------------0---|
a-------------7-----7-----7---------5-------|
E---0------------5-----------5---3----------|

Chorus Chords

  A       G        C         B                                      
e-0-------0--------0---------0|             
B-0-------0--------0---------0|                        
G-6-------4--------9---------8|                      
D-7-------5--------10--------9|                        
A-7-------5--------10--------9|                     
E-5-------3--------8---------7|                     

             OR
  A       G        C         B  
e-0-------3--------0----------|
B-2-------3--------1---------4|
G-2-------0--------0---------4|
D-2-------0--------2---------4|
A-0-------2--------3---------2|
E---------3-------------------|

Bridge Part 1

   G#/C             A/C#            A#/D            B/D#
e-------------------------------------------------------------------|    
B-------------------------------------------------------------------|   
G------0-------0-------0-------0-------0-------0-------0-------0----|
D-------------------------------------------------------------------|
A--3-3---3-3-3---3-4-4---4-4-4---4-5-5---5-5-5---5-6-6---6-6-6---6--|
E--4-4---4-4-4---4-5-5---5-5-5---5-6-6---6-6-6---6-7-7---7-7-7---7--|
  So there's problems in your life that's fucked up, and I'm not blind
  
  I'm just see through faded, super jaded, And out of my mind

Bridge Part 2
* Bend Up And Back Down
    E           G            F#/A#
e------------------------------------------|
B------------------------------------------|
G---0--------------------------------------|
D---2--2------------0pm----------0pm-------|
A---2-----1*------2pm--2pm-----1pm--1pm----|
E-0-0-------0---3pm-----3pm--2pm------2pm--|

--------------------------------------------------------------------------------------------------------

Intro 4x

E      A      G               E
              Be what you wanna be
E      A      G               E
              See what you came to see
E      A      G               E
              Been what you wanna be
E      A      G               E
              I don't like what I see

Chorus

A        G              C
Like the coldest winter chill
       B
Heaven beside you... Hell within
A        G              C
Like the coldest winter chill
        B
Heaven beside you... Hell within
A        G              C
Like the coldest winter will
       B
Heaven beside you... Hell within
A       G                 C            B
And you think you have it still, heaven inside you

Bridge Part 1

G#/C             A/C#            A#/D            B/D#
So there's problems in your life, That's fucked up, and I'm not blind

G#/C             A/C#            A#/D            B/D#
I'm just see through faded, super jaded, And out of my mind

Bridge Part 2 4x

    E           G            F#/A#
    E           G            F#/A#
    E           G            F#/A#
    E           G            F#/A#


INTRO

E      A       G                  E
               Do what you wanna do
E      A       G                  E
               Go out and seek your truth
E      A       G                  E
               When I'm down and blue
E      A       G                  E
               Rather be me than you

Chorus

A        G              C
Like the coldest winter chill
       B
Heaven beside you... Hell within
A        G              C
Like the coldest winter chill
        B
Heaven beside you... Hell within
A        G              C
Like the coldest winter will
       B
Heaven beside you... Hell within
A       G                 C            B
And you think you have it still, heaven inside you

Bridge Part 1

G#/C             A/C#            A#/D            B/D#
So there's problems in your life, That's fucked up, and I'm not blind

G#/C             A/C#            A#/D            B/D#
 just see through faded, super jaded, And out of my mind

Bridge Part 2

    E           G            F#/A#
    E           G            F#/A#
    E           G            F#/A#
    E           G            F#/A#

Chorus

A        G              C
Like the coldest winter chill
       B
Heaven beside you... Hell within
A        G              C
Like the coldest winter chill
        B
Heaven beside you... Hell within
A        G              C
Like the coldest winter will
       B
Heaven beside you... Hell within
A       G                 C            B
And you think you have it still, heaven inside you

Bridge Part 1

G#/C             A/C#            A#/D            B/D#
So there's problems in your life, That's fucked up, but You're not blind
G#/C             A/C#            A#/D            B/D#
You're just see through faded, overrated And out of your mind

Bridge Part 2 4x

    E           G            F#/A#
    E           G            F#/A#
    E           G            F#/A#
    E           G            F#/A#

Intro   
https://primanota.ru/alice-in-chains/heaven-beside-you-chords.htm

Привет, гитарист!

Тебе подарок от сайта PrimaNota.ru

Забрать подарок
ВАМ ПОДАРКИ ОТ ПРОЕКТА
"ГИТАРНАЯ РЕВОЛЮЦИЯ"