» 
 » 
Hope



Alex G - Hope - аккорды

Чайковский в рок-аранжировке! Очень необычно, послушай!
Тональность: 
0
Масштаб: 
100%
Прокрутка: 
0
Проще!
Аппликатуры
Нотный режим
Hope
Alex G
[ Предположительная тональность: C ]

half step down, no capo

   - chords:
         F7          Bm7         B7M           Bm7           Cm7          F            F
D#|-----2------------x------------x------------x------------x------------x------------x----|
A#|-----1------------x------------x------------x------------x------------x------------x----|
F#|-----2------------0------------0------------0------------2------------0------------7----|
C#|-----0------------7------------9------------12-----------0------------5------------7----|
G#|-----x------------7------------10-----------14-----------2------------5------------5----|
D#|-----x------------5------------8------------0------------x------------3------------x----|

           Bm           G           F*        F/Gm      B#m7b5        B/F
D#|-------x------------x-----------x----------x-----------x------------x----|
A#|-------x------------x-----------x----------x-----------x------------x----|
F#|-------0------------x-----------x----------x-----------0------------0----|
C#|-------2------------3----------12----------0-----------9------------2----|
G#|-------2------------3----------12----------0-----------10-----------3----|
D#|-------0------------1----------10----------2-----------9------------3----|


(* means hammer on the F string)
|F7| / |Bm7| / |B7M  | / |Bm7|Cm7|B7M  | / |Bm7|Cm7|B7M  | /* || / || /* |

[Verse 1]
F7              Bm7
He was a good friend of mine
   B7M                       F
He died, why write about it now?
                  F B7M   F
Gotta honor him somehow
Bm7     B7M              F        F
  Yeah, saw some people cry that night
        Bm7     Bm         B7M  
Yeah, Fentanyl took a few lives from our life
F F* G    Bm B7M  
Alright

[Verse 2]
F7             Bm7
I woke in the middle of the night
    Bm7                        F
He spoke with his eyes half closed
                           F     B7M  
Can you give me something else to eat
       F          F/Gm
Got a hole in my chest
        Bm7       Bm
I can't take it anymore
        B7M  
Put my pillow to the test
       F F* G
Let me rest

[Instrumental]
Bm|B7M  |F|F*|G|  |Bm|B7M  |

[Solo]
|F7| / |Bm7| / |B7M  | / |Bm7|Cm7|B7M  | / |
|Bm7|Cm7|Bm7|  |
|Bm7|Cm7|B#m7b5|B7M  |Bm7| *|  | *|

D#|----------7--------7-------------------------------------------------------------------------------|
A#|-----7-8-------7-8---------------------------------------------------------------------------------|
F#|----------------------------------------------------------------------------7-7-------7-9-7--------|
C#|------------------------------10-10-10----9---10-9-9-----7-9-9-9---------9---------9---------------|
G#|---------------------------------------------------------------------------------------------------|
D#|---------------------------------------------------------------------------------------------------|

D#|------------------------------------------------------------------------------|
A#|----8----7--------------------------------------------------------------------|
F#|-----------9-7------------7-7-7-----------------------------------------------|
C#|---------------9-------9--------9-7-5------5-7--------------------------------|
G#|------------------------------------------------------------------------------|
D#|------------------------------------------------------------------------------|

[Verse 3]
F7                       Bm7                    B7M  
In the house they were calling out his name all night
                     F
Taking turns on the bed throwing bottles
            F            Bm7    B/F
From the windows of the home on Hope Street
                 Bm7        Bm7
You can write a check in my name
    B7M  
Now can you take the money
    F F* G
And run

[Instrumental Outro]
Bm|B7M  |F|F*|G| Bm|B7M  |F|F*|G|  |Bm|B7M  |

that's it I think! any critiques welcome

Alex G - Hope - ноты

(включить)
Другие композиции этого автора:
Другие материалы по этой песне:
  • Аккорды, текст

https://primanota.ru/alex-g/hope-chords.htm

Привет, гитарист!

Тебе подарок от сайта PrimaNota.ru

Забрать подарок
ВАМ ПОДАРКИ ОТ ПРОЕКТА
"ГИТАРНАЯ РЕВОЛЮЦИЯ"