Войти:  Facebook Google Twitter Vk Yandex Mail.ru
PrimaNota.ru - самый крупный в мире бесплатный архив песенных текстов, аккордов, табулатур и нот


Alela Diane - I Have Returned - табы

Печатать
ViraMusic 2019 в Петербурге 4 апреля 2019! Скидка 10%!

I Have Returned

  • аккорды, текст

This is pretty much the gist of this lovely tune.
I'm not at all positive that the picking pattern
in the chorus is correct, but I think it sounds
just fine like this. If you have any suggestions, let me know. :)

Intro and Verse:

    Am
e|-----------------------------------------|
B|------1------------0-------0-------------|
G|----2------------------------------------|
D|0h2-----2-0------0-------0---------------|
A|-------------0h2-----0h2-----------------|
E|-----------------------------------------|

    G                   Am
e|-----------------------------------------|
B|------0---------0------1-----------------|
G|-----------------------2-----------------|
D|----0--------0---------2---0-------------|
A|--------0h2---------0--------------------|
E|0h3--------------------------------------|


Chorus: Play Part 1 once and then go straight to part 2 three times total.
(Part 1)
      Am            D
e|--------------------2--------2-----------|
B|------1---------3--------3---------------|
G|----2-------------2--------2-------------|
D|0h2-----2-0---0--------0-----------------|
A|-----------------------------------------|
E|-----------------------------------------|


e|----------------------2--0---------------|
B|------1--------1-------------------------|
G|--2--------2----------2--0---------------|
D|----2--------2------0--------------------|
A|0--------0-------------------------------|
E|-----------------------------------------|

(Part 2)
      Am                 D
e|------------------------2--------3-------|
B|------1--------1----3--------3-----------|
G|--2--------2----------2--------2---------|
D|----2--------2----0--------0-------------|
A|0--------0-------------------------------|
E|-----------------------------------------|


e|----------------------2--0---------------|
B|------1--------1-------------------------|
G|--2--------2----------2--0---------------|
D|----2--------2------0--------------------|
A|0--------0-------------------------------|
E|-----------------------------------------|

Repeat Part 2 twice.

The song just kinda goes on like this the whole time. :)   
https://primanota.ru/alela-diane/i-have-returned-chords.htm

Привет, гитарист!

Тебе подарок от сайта PrimaNota.ru

Забрать подарок
ВАМ ПОДАРКИ ОТ ПРОЕКТА
"ГИТАРНАЯ РЕВОЛЮЦИЯ"