» 
 » 
Бывалый парень



Александр Коренюгин - Бывалый парень - аккорды

Чайковский в рок-аранжировке! Очень необычно, послушай!
Тональность: 
0
Масштаб: 
100%
Прокрутка: 
0
Проще!
Аппликатуры
Нотный режим
Бывалый парень
Александр Коренюгин
[ Предположительная тональность: D ]

Вступление:
E|-------3-------2-------3---------------3-------2-------3---------|
B|-----3-------3-------3-------3-------3-------3-------3-------3---|
G|---0-------0-------0-------0---0---0-------0-------0-------0---0-|
D|-----------------------------------------------------------------|
A|-----------------------------------------------------------------|
E|-3-------------------------------0-------------------------------|

E|-------3-------2-------3---------------0-----2-------------------|
B|-----3-------3-------3-------3-------3---------------3-----3---3-|
G|---0-------0-------0-------0---0---2-------2---2---0-----0-------|
D|---------------------------------0-------------------------------|
A|-3-----------------------------------------------3-----2-----0---|
E|-----------------------------------------------------------------|

G G | Em Em | C C | D D

            C        D          G
Ко мне приехал старый друг, бывалый парень,
            C        D          G
На кухне мы сидим вдвоём и кофе варим
           C        D D#dim7            Em
И вспоминаем о былом,          не забывая о своём,
             С          D          G
О том, что было с нами, о том, как мы живём

        C           D           G
Былое вдаль ушло, а дружба остаётся,
         C           D             Em
Не пьётся порознь нам и порознь не поётся
         C             D          Em   G
И за столом сидим, молчим, а время тает,
        C            D         G   A
Пьём кофе, папиросы курим и светает

       D           E            A
Тебя зовут свои дела, но время терпит,
       D           E            F#m
Душа соскучилась, соскучилась до смерти
          D          E          F#m  A
По той душе, что и без слов всё понимает
        D           E        A      E
Пьём кофе, папиросы курим и светае-е-ет

Проигрыш: A A | F#m F#m | D D | E E
          F#m F#m | A A | D D | E E

     D       E             A
Гитара правду пропоёт о нашей жизни,
           D           E            A
О том, что не сбылось, о том, где мы зависли
    D        E             F#m
Под утро песня эта душу согревает,
       F#m7 D        E          F#m
Пьём кофе, папиросы курим и светает,
       F#m7 D      E          A      E
Пьём кофе, папиросы курим и светае-е-ет

Окончание: F#m C#m | D E | A

Александр Коренюгин - Бывалый парень - ноты

(включить)
Другие материалы по этой песне:
  • Аккорды, текст

https://primanota.ru/aleksandr-korenyugin/byvalyi-paren-chords.htm

Привет, гитарист!

Тебе подарок от сайта PrimaNota.ru

Забрать подарок
ВАМ ПОДАРКИ ОТ ПРОЕКТА
"ГИТАРНАЯ РЕВОЛЮЦИЯ"