Войти:  Facebook Google Twitter Vk Yandex Mail.ru
PrimaNota.ru - самый крупный в мире бесплатный архив песенных текстов, аккордов, табулатур и нот


Albert King - Kansas City - табы, бас-таба

Печатать
ViraMusic 2019 в Петербурге 4 апреля 2019! Скидка 10%!

Kansas City

  • аккорды, текст

Авторы: Mike Stoller, Jerry Leiber
Авторы музыки: Mike Stoller
Авторы текста: Jerry Leiber
------------------------------------------------------------------------------------------------------------
                                          Artist - Albert King
                                         **********************
                                           Song - Kansas City
                                          ********************
                                          Tabbed By - Ayreon77
                                         **********************
------------------------------------------------------------------------------------------------------------
Tuning = Standard                   This Was A Request For The Intro.


e|-------15--15-16---p------|---p--------s-|--------------p--------h--p---------|--b----|
B|-15-18-----------18-15----|-18-15-17-15\-|--s---13----16-13-15-13-15-13----13-|-16-13-|
G|-----------------------15-|--------------|-7\12----12-------------------15----|-------|
D|--------------------------|--------------|------------------------------------|-------|
A|--------------------------|--------------|------------------------------------|-------|
E|--------------------------|--------------|------------------------------------|-------|


e|----------|----------------|------------|
B|----13----|----13----------|------------|
G|-12----12-|-11-----10-8----|----8-------|
D|----------|-------------10-|-10---10----|
A|----------|----------------|---------10-|
E|----------|----------------|------------|   
https://primanota.ru/albert-king/kansas-city-chords.htm

Привет, гитарист!

Тебе подарок от сайта PrimaNota.ru

Забрать подарок
ВАМ ПОДАРКИ ОТ ПРОЕКТА
"ГИТАРНАЯ РЕВОЛЮЦИЯ"