» 
 » 
Кони беспредела



Аквариум, Борис Гребенщиков - Кони беспредела - аккорды

Чайковский в рок-аранжировке! Очень необычно, послушай!
Тональность: 
0
Масштаб: 
100%
Прокрутка: 
0
Проще!
Аппликатуры
Нотный режим
Кони беспредела
Аквариум, Борис Гребенщиков
[ Предположительная тональность: C ]

Б. Гребенщиков
Каподастр на 2-м ладу

Вступление:
Fm7(V) C7/F(IV) Cm - 3p.

E---3-1-0---------0-1-0-----
H--------3-1-0-1-3-----3-1-0
G--2------------------------ Cm
F-0-------------------------
A---------------------------

G         Cm       Cm        Cm
 Ехали мы, ехали с горки на горку,
G          Cm   Cm       Cm
 Да потеряли ось от колеса.
G              C   Fm             G Gsus2/C
 Вышли мы вприсядку, мундиры в оборку;
Fm                           Cm
  Солдатики любви - синие глаза...

Как взяли - повели нас дорогами странными;
Вели - да привели, как я погляжу;
Сидит птица бледная с глазами окаянными;
Что же, спой мне птица - может я попляшу...

G                   C       Fm        Cm
 Спой мне, птица, сладко ли душе без тела?
G                C         Fm           Cm
 Легко ли быть птицей - да так, чтоб не петь?
Запрягай мне, Господи, коней беспредела;
Я хотел пешком, да видно, мне не успеть...

Проигрыш:
Fm7(V) C7/F(IV) Cm - 3p.

E---3-1-0---------0-1-0-----
H--------3-1-0-1-3-----3-1-0
G--2------------------------ C
F-0-------------------------
A---------------------------

Fm7(V) C7/F(IV) Cm - 3p.

E---3-1-0---------0-1-0-----
H--------3-1-0-1-3-----3-1-0
G--2------------------------ Cm
F-0-------------------------
A---------------------------

А чем мне их кормить, если кони не сыты?
Как их напоить? - они не пьют воды.
Шёлковые гривы надушены, завиты;
Острые копыта, алые следы.

А вот и все мои товарищи - водка без хлеба,
Один брат - Сирин, а другой брат - Спас.
А третий и хотел дойти ногами до неба,
Но выпил, удолбался, вот и весь сказ.

G               C        Fm        Cm
 Ох, вылетела пташка, да не долетела,
G          C       Fm     Cm
 Заклевал коршун - да голубя.
Запрягли, взнуздали мне коней беспредела,
А кони понесли - да всё прочь от тебя...

Проигрыш: Fm7(V) C7/F(IV) Cm - 3p.
E---3-1-0---------0-1-0-----
H--------3-1-0-1-3-----3-1-0
G--2------------------------ C
F-0-------------------------
A---------------------------

Fm7(V) C7/F(IV) Cm - 3p.

E---3-1-0---------0-1-0-----
H--------3-1-0-1-3-----3-1-0
G--2------------------------ Cm
F-0-------------------------
A---------------------------

Метились мы в дамки, да масть ушла мимо;
Все козыри в грязи, как ни крути.
Отче мой Сергие, отче Серафиме!
Звёзды - наверху, а снег на пути...

Аквариум, Борис Гребенщиков - Кони беспредела - ноты

(включить)
https://primanota.ru/akvarium/koni-bespredela.htm