# 0 1 2 3 4 5 6 7 8 9 A B C D E F G H I J K L M N O P Q R S T U V W X Y Z
А Б В Г Д Е Ж З И І Й К Л М Н О П Р С Т У Ф Х Ц Ч Ш Щ Ы Э Ю Я
Войти:  Facebook Google Twitter Vk Yandex Mail.ru



Aiho - Мой мир - аккорды

 » 
 » 
Мой мир
Нотный режим - новая уникальная возможность на нашем сайте!
Тональность: 
0
Масштаб: 
100%
Прокрутка: 
0
Проще!
Аппликатуры
Нотный режим
Мой мир
Aiho
[ Предположительная тональность: D ]

Вступление 2 раза:
e -------------------------------------------1------------
B -------0------3------3--------------0--------0----0-----
G -----2---2------2------2----------2---2--------2----2---
D ---2-------2------2------2------2-------2-------------0-
A -0------------0------0--------3------------3------3-----
E --------------------------------------------------------

e----------------------------------------------------------
B--------0-------------3--------------0-------------1------
G------2---2---------2---2----------2---2---------2---2----
D----3-------3-----3-------3------0-------0-----0-------0--
A--2-------------2-----------------------------------------
E-------------------------------1-------------0-------------

перебор:
1 2
Я не вернусь мой мир и ты не возвращайся
3 4 5 6
Пускай мечтаю я об этом каждый миг
С лучами солнца с небом попрощайся
И с волнами которых не постиг

Прощай мой мир живи среди развалин
Среди заброшенных разрушенных долин
В замершем сердце не ищи проталин
Там не найти тепла, там мир холодных льдин

Плевать на все земное притяжение
Я разорву все нити, что средь нас
Судьба на наблюдает продолжения
И шансы не даются второй раз
8 1
Даже в самый жуткий час
бой:
1 2 3 5
1 2
Я бы смотрела в глаза эти вечно
3 5
Слов не сказав и не дрогнув ничуть
В душу твою проникаю беспечно
В ней так тепло только бы не заснуть

Взглядов нить туго натянута нами
И напряжение не прекратить
Ты мне позволь ухватится руками
И направление ее изменить

Море и небо сиянье вселенной
Все прочитаю во взгляде твоем
И я душою своею нетленной
Буду стучатся в тот узкий проем

Буду стучаться пока на откроешь
Нервно смеясь и крича вникуда
Ты от меня ничего не укроешь
Всюду всегда отыщу я тебя

перебор:
1 2
Под небоскребом я построю себе дом
3 4 5 6
От глаз чужых укроюсь и суждений
Ведь часто даже в слове простом
Так много ложью скрытых обвинений

Прощай мой мир я не вернусь обратно
Сломать себя сложней чем просто отступить
В глазах чужых мне нужно разобраться
Ну что же, что же, что же делать как поступить?

Aiho - Мой мир - ноты

(включить)
https://primanota.ru/aiho/moi-mir.htm

Привет, гитарист!

Тебе подарок от сайта PrimaNota.ru

Забрать подарок
ВАМ ПОДАРКИ ОТ ПРОЕКТА
"ГИТАРНАЯ РЕВОЛЮЦИЯ"