Войти:  Facebook Google Twitter Vk Yandex Mail.ru
PrimaNota.ru - самый крупный в мире бесплатный архив песенных текстов, аккордов, табулатур и нот


AFI - Jack The Ripper - текст песни, табы, бас-таба

Печатать
Поддержи лучшую metal-группу Петербурга!

Jack The Ripper

  • аккорды, текст

Авторы: Morrissey, Boz Boorer

Capo on 5

Listen to the strums.
Intro/Verse

e-7---7----7---7--|
b-7---7----8---7--|
g-7---7----7---9--|
d-9---7--------9--|
a-9---9--------7--|
e-7---7--------x--|


(...crash into my.)
e------------------------------------------------------|
b-7-7-7-7----5-5-5-5----5-5-5---?--10-10-10-8-7--------|
g--7-7-7-7----6-6-6-6----7-7-7--?---------------7-7----|
d------------------------------------------------------|
a------------------------------------------------------|
e------------------------------------------------------|


e------------------------------------------------------|
b-7-7-7-7----5-5-5-5----5-5-5---?-----5-5-10-10-10-10--|
g--7-7-7-7----6-6-6-6----7-7-7--?--7/9-9---------------|
d------------------------------------------------------|
a------------------------------------------------------|
e------------------------------------------------------|

(...and i know a place)
e-7---7----7---7--|
b-7---7----8---7--|
g-7---7----7---9--|
d-9---7--------9--|
a-9---9--------7--|
e-7---7--------x--|

(...too much.)
Listen to the picking.
e-10------------10------10-12-------12----14---14---15-------------|
b---12-12-12-12---12-12------12-12----12-----12--12---12-----------|
g------------------------------------------------------------------|
d------------------------------------------------------------------|
a------------------------------------------------------------------|
e------------------------------------------------------------------|


e-10------------10------10-12-------12----14---14--14---------------|
b---12-12-12-12---12-12------12-12----12-----12--12---15------------|
g-------------------------------------------------------------------|
d-------------------------------------------------------------------|
a-------------------------------------------------------------------|
e-------------------------------------------------------------------|


(...crash into.)
e------------------------------------------------------|
b-7-7-7-7----5-5-5-5----5-5-5---?--10-10-10-8-7--------|
g--7-7-7-7----6-6-6-6----7-7-7--?---------------7-7----|
d------------------------------------------------------|
a------------------------------------------------------|
e------------------------------------------------------|


e------------------------------------------------------|
b-7-7-7-7----5-5-5-5----5-5-5---?-----5-5-10-10-10-10--|
g--7-7-7-7----6-6-6-6----7-7-7--?--7/9-9---------------|
d------------------------------------------------------|
a------------------------------------------------------|
e------------------------------------------------------|

Corrections corrections please!   
https://primanota.ru/afi/jack-the-ripper-chords.htm

Привет, гитарист!

Тебе подарок от сайта PrimaNota.ru

Забрать подарок
ВАМ ПОДАРКИ ОТ ПРОЕКТА
"ГИТАРНАЯ РЕВОЛЮЦИЯ"