Войти:  Facebook Google Twitter Vk Yandex Mail.ru
PrimaNota.ru - самый крупный в мире бесплатный архив песенных текстов, аккордов, табулатур и нот


Aeternam - Ouroboros - табы

Печатать
Лучшая metal-группа Петербурга

Ouroboros

  • аккорды, текст

http://www.metal-archives.com/band.php?id=3540285080

I only learned the intro because I think it's the coolest
part of the song.

h = hammer on
p = pull off

D:---------------------------------------------------------|
A:---------------------------------------------------------|
F:---------------------------------------------------------|
C:-------------------------------------------6h7p6---------|
G:-------7-----8-----4-5-7-8-----7-----8-----------8-------|
D:-0-0-0---0-0---0-0---------0-0---0-0---0-0---------------|

D:---------------------------------------------------------|
A:---------------------------------------------------------|
F:---------------------------------------------------------|
C:---------------------------------------------------------|
G:-------7-----8-----4-5-7-8-----7-----8-----10------------|
D:-0-0-0---0-0---0-0---------0-0---0-0---0-0---------------|


D:---------------------------------------------------------|
A:---------------------------------------------------------|
F:---------------------------------------------------------|
C:-------------------------------------------6h7p6---------|
G:-------7-----8-----4-5-7-8-----7-----8-----------8-------|
D:-0-0-0---0-0---0-0---------0-0---0-0---0-0---------------|

D:---------------------------------------------------------|
A:---------------------------------------------------------|
F:---------------------------------------------------------|
C:--------------------------------------------8-----7------|
G:-------7-----8-----4-5-7-8-----7-----8-------------------|
D:-0-0-0---0-0---0-0---------0-0---0-0---0-0----0-0--------|


D:---------------------------------------------------------|
A:---------------------------------------------------------|
F:---------------------------------------------------------|
C:-------------------------------------------6h7p6---------|
G:-------7-----8-----4-5-7-8-----7-----8-----------8-------|
D:-0-0-0---0-0---0-0---------0-0---0-0---0-0---------------|

D:---------------------------------------------------------|
A:---------------------------------------------------------|
F:---------------------------------------------------------|
C:---------------------------------------------------------|
G:-------7-----8-----4-5-7-8-----7-----8-----10------------|
D:-0-0-0---0-0---0-0---------0-0---0-0---0-0---------------|


D:---------------------------------------------------------|
A:---------------------------------------------------------|
F:---------------------------------------------------------|
C:-------------------------------------------6h7p6---------|
G:-------7-----8-----4-5-7-8-----7-----8-----------8-------|
D:-0-0-0---0-0---0-0---------0-0---0-0---0-0---------------|

D:------------------------------------------------------------------------|
A:------------------------------------------------------------------------|
F:------------------------------------------------------------------------|
C:---------------------------------------------------------------8-----7--|
G:-------7-----8-----4-5-7-8-----7-----8-----10-----8-----7---------------|
D:-0-0-0---0-0---0-0---------0-0---0-0---0-0----0-0---0-0---0-0----0-0----|   
Другие композиции этого автора:
Другие материалы по этой песне:
  • Аккорды, текст

https://primanota.ru/aeternam/ouroboros-chords.htm

Привет, гитарист!

Тебе подарок от сайта PrimaNota.ru

Забрать подарок
ВАМ ПОДАРКИ ОТ ПРОЕКТА
"ГИТАРНАЯ РЕВОЛЮЦИЯ"