Войти:  Facebook Google Twitter Vk Yandex Mail.ru
PrimaNota.ru - самый крупный в мире бесплатный архив песенных текстов, аккордов, табулатур и нот


Absynthe Minded - Lets Go - табы, видео

Печатать
Лучшая metal-группа Петербурга

Lets Go

  • аккорды и текст

Absynthe Minded
"Let's Go"
Acquired Taste (2004)


[Verse]

    B7             A7             C
e|-----3--3-----2-----3--3-----2-----0--0-------------------------|
B|-----0--0-----0-----2--2-----2-----1--1-------------------------|
G|-----2--2-----2-----0--0-----0-----0--0-------------------------|
D|----------------------------------------------------------------| 
A|--2--------2-----0--------0-----3-----------0--3--2-------------|
E|-----------------------------------------3----------------------|(x3)

    B7             A7             C
e|-----3--3-----2-----3--3-----2-----0--0-------------------------|
B|-----0--0-----0-----2--2-----2-----1--1-------------------------|
G|-----2--2-----2-----0--0-----0-----0--0-------------------------|
D|-----------------------------------------2--0-------------------|
A|--2--------2-----0--------0-----3--------------3--2-------------|
E|----------------------------------------------------------------|


[Chorus]

    B7             A7             C7
e|-----3--3-----2-----3--3-----2-----0--0-----0-----0--0-----0----|
B|-----0--0-----0-----2--2-----2-----1--1-----1-----1--1-----1----|
G|-----2--2-----2-----0--0-----0-----3--3-----3-----3--3-----3----|
D|----------------------------------------------------------------|
A|--2--------2-----0--------0-----3--------------3----------------|
E|-----------------------------------------3--------------3-------|

    C7
e|-----0--0-----0-----0--0-----0-----0--0-----0-----0--0-----0----|
B|-----1--1-----1-----1--1-----1-----1--1-----1-----1--1-----1----|
G|-----3--3-----3-----3--3-----3-----3--3-----3-----3--3-----3----|
D|----------------------------------------------------------------|
A|--3--------------3--------------3--------------3----------------|
E|-----------3--------------3--------------3--------------3-------|

    F                             E
e|-----1--1-----1-----1--1-----1-----0--0-----0-----0--0-----0----|
B|-----1--1-----1-----1--1-----1-----0--0-----0-----0--0-----0----|
G|-----2--2-----2-----2--2-----2-----1--1-----1-----1--1-----1----|
D|----------------------------------------------------------------|
A|----------------------------------------------------------------|
E|--1--------1-----1--------1-----0--------0-----0--------0-------|

    C                             D7
e|-----0--0-----0-----0--0-----0----------------------------------|
B|-----1--1-----1-----1--1-----1-----3--3-----3-----3--3-----3----|
G|-----0--0-----0-----0--0-----0-----5--5-----5-----5--5-----5----|
D|-----------------------------------4--4-----4-----4--4-----4----|
A|--3--------3-----3--------3-----5--------5-----5--------5-------|
E|----------------------------------------------------------------|   
Другие материалы по этой песне:
  • Аккорды и текст

https://primanota.ru/absynthe-minded/lets-go-chords.htm

Привет, гитарист!

Тебе подарок от сайта PrimaNota.ru

Забрать подарок
ВАМ ПОДАРКИ ОТ ПРОЕКТА
"ГИТАРНАЯ РЕВОЛЮЦИЯ"