Войти:  Facebook Google Twitter Vk Yandex Mail.ru
PrimaNota.ru - самый крупный в мире бесплатный архив песенных текстов, аккордов, табулатур и нот


Absynthe Minded - Ive Been There Old Love Never Dies - аккорды и текст, видео

Печатать
Лучшая metal-группа Петербурга

Ive Been There Old Love Never Dies

  • аккорды и текст
Тональность: 
0
Проще! Аппликатуры

Ive Been There Old Love Never Dies
Absynthe Minded
Absynthe Minded
"I've Been There (Old Love Never Dies)"
Acquired Taste (2004)


Tuning : Standard



Chords :

     E     G     A     C     B7     A7    F#    F     G#    A#    B
e|---0----(3)---(0)----0-----2------0-----2-----1-----4-----6-----7---
B|---0----(0)----2-----1-----0------2-----2-----1-----4-----7-----7---
G|---1-----0-----2-----0-----2------0-----3-----2-----5-----6-----8---
D|---2-----0-----2-----2-----1------2-----4-----3-----6-----8-----9---
A|---2-----2-----0-----3-----2------0-----4-----3-----6-----8-----9---
E|---0-----3------------------------------2-----1-----4-----6-----7---




Intro :
    E        G  A  G
e|--0--0--0-----------|
B|--0--0--0-----2-----|
G|--1--1--1--0--2--0--|
D|--2--2--2--0--2--0--|    x4
A|--2--2--2--2--0--2--|
E|--0--0--0--3-----3--|



Verse :
    C        B7                 A7        B7       A7 G  F#  intro
e|--0--0--0--2--2--2-|-2--2--2--0--0--0-|-2--2--2--0-------|-0--0--0-----------|
B|--1--1--1--0--0--0-|-0--0--0--2--2--2-|-0--0--0--2-------|-0--0--0-----2-----|
G|--0--0--0--2--2--2-|-2--2--2--0--0--0-|-2--2--2--0-------|-1--1--1--0--2--0--|
D|--2--2--2--1--1--1-|-1--1--1--2--2--2-|-1--1--1--2-------|-2--2--2--0--2--0--|
A|--3--3--3--2--2--2-|-2--2--2--0--0--0-|-2--2--2--0-------|-2--2--2--2--0--2--|
E|-------------------|------------------|-------------3--2-|-0--0--0--3-----3--|

   C            B7
If talk could undress
                    A7
Your truth form her dress
    B7          A7  G  F#  intro x4
I'd be by your side for a while

   C             B7
If words could express
                 A7
What I felt that night
     B7           A7   G   F#  intro x2
Then you would be mine for all time

   C      B7
If anyone asks me if I know
       A7
What's good for me
B7         A7     G  F#  intro x4
You are my chance to survive

          C        B7
You're my ignorant bliss
                  A7
And I won't get a kiss
       B7            A7  G  F# E
From a girl that got out of my life
    G      A  G
And walked in again



Bridge :
    F#                                  E                 G
e|--2--------2--------2--------2--------0--------0--------3--------3--------|
B|--2--------2--------2--------2--------0--------0--------3--------3--------|
G|--3--------3--------3--------3--------1--------1--------4--------4--------|
D|--4--------4--------4--------4--------2--------2--------5--------5--------|
A|--4--------4--------4--------4--------2--------2--------5--------5--------|
E|--2--------2--------2--------2--------0--------0--------3--------3--------|

    F#                                  A                 E        F
e|--2--------2--------2--------2--------5--5--5--5--5--5--0--0--0--1--1--1--|
B|--2--------2--------2--------2--------5--5--5--5--5--5--0--0--0--1--1--1--|
G|--3--------3--------3--------3--------6--6--6--6--6--6--1--1--1--2--2--2--|
D|--4--------4--------4--------4--------7--7--7--7--7--7--2--2--2--3--3--3--|
A|--4--------4--------4--------4--------7--7--7--7--7--7--2--2--2--3--3--3--|
E|--2--------2--------2--------2--------5--5--5--5--5--5--0--0--0--1--1--1--|

    F#       A  G# G  F#       A# A  G  F#       B  A  G  F#       B  A  G
e|--2--------5--4--3--2--------6--5--3--2--------7--5--3--2--------7--5--3--|
B|--2--------5--4--3--2--------6--5--3--2--------7--5--3--2--------7--5--3--|
G|--3--------6--5--4--3--------7--6--4--3--------8--6--4--3--------8--6--4--|
D|--4--------7--6--5--4--------8--7--5--4--------9--7--5--4--------9--7--5--|
A|--4--------7--6--5--4--------8--7--5--4--------9--7--5--4--------9--7--5--|
E|--2--------5--4--3--2--------6--5--3--2--------7--5--3--2--------7--5--3--|



Intro x 4



Verse :
   C            B7
If talk could undress
                    A7
Your truth form her dress
    B7          A7  G  F#  intro x2
I'd be by your side for a while

   C             B7
If words could express
                 A7
What I felt that night
     B7           A7   G   F#  intro x2
Then you would be mine for all time

C         B7           A7
I seem to be outrageously
   B7        A7 G  F#  intro x2
Compelled to be by her side

      C               B7                A7
And I don't know what I'll believe in tomorrow
    B7            A7  G  F# E
The girl that got out of my life
     G      A   G
Just walked in again



Bridge :
    F#                                  E                 G
e|--2--------2--------2--------2--------0--------0--------3--------3--------|     \
B|--2--------2--------2--------2--------0--------0--------3--------3--------|      \
G|--3--------3--------3--------3--------1--------1--------4--------4--------|       |
D|--4--------4--------4--------4--------2--------2--------5--------5--------|       |
A|--4--------4--------4--------4--------2--------2--------5--------5--------|       |
E|--2--------2--------2--------2--------0--------0--------3--------3--------|       |
                                                                                    |
    F#                                  A                 E        F                |    x2
e|--2--------2--------2--------2--------5--5--5--5--5--5--0--0--0--1--1--1--|       |
B|--2--------2--------2--------2--------5--5--5--5--5--5--0--0--0--1--1--1--|       |
G|--3--------3--------3--------3--------6--6--6--6--6--6--1--1--1--2--2--2--|       |
D|--4--------4--------4--------4--------7--7--7--7--7--7--2--2--2--3--3--3--|       |
A|--4--------4--------4--------4--------7--7--7--7--7--7--2--2--2--3--3--3--|      /
E|--2--------2--------2--------2--------5--5--5--5--5--5--0--0--0--1--1--1--|     /



    F#                                  E                 
e|--2--------2--------2--------2--------0--------0--------0--------0--------|     \
B|--2--------2--------2--------2--------0--------0--------0--------0--------|      \
G|--3--------3--------3--------3--------1--------1--------1--------1--------|       |
D|--4--------4--------4--------4--------2--------2--------2--------2--------|       |
A|--4--------4--------4--------4--------2--------2--------2--------2--------|       |
E|--2--------2--------2--------2--------0--------0--------0--------0--------|       |
                                                                                    |
    F#                                  E                 G                         |    x4
e|--2--------2--------2--------2--------0--0--0--0--0--0--3--3--3--3--3--3--|       |
B|--2--------2--------2--------2--------0--0--0--0--0--0--3--3--3--3--3--3--|       |
G|--3--------3--------3--------3--------1--1--1--1--1--1--4--4--4--4--4--4--|       |
D|--4--------4--------4--------4--------2--2--2--2--2--2--5--5--5--5--5--5--|       |
A|--4--------4--------4--------4--------2--2--2--2--2--2--5--5--5--5--5--5--|      /
E|--2--------2--------2--------2--------0--0--0--0--0--0--3--3--3--3--3--3--|     /

F#              E
She walks in so gracefully and
F#                 E      G
I've been there before



Outro :
    F#       A  G# G  F#       A# A  G  F#       B  A  G  F#       B  A  G
e|--2--------5--4--3--2--------6--5--3--2--------7--5--3--2--------7--5--3--|
B|--2--------5--4--3--2--------6--5--3--2--------7--5--3--2--------7--5--3--|
G|--3--------6--5--4--3--------7--6--4--3--------8--6--4--3--------8--6--4--|
D|--4--------7--6--5--4--------8--7--5--4--------9--7--5--4--------9--7--5--|
A|--4--------7--6--5--4--------8--7--5--4--------9--7--5--4--------9--7--5--|
E|--2--------5--4--3--2--------6--5--3--2--------7--5--3--2--------7--5--3--|



Intro x4   
Другие материалы по этой песне:
  • Аккорды и текст

https://primanota.ru/absynthe-minded/ive-been-there-old-love-never-dies-chords.htm

Привет, гитарист!

Тебе подарок от сайта PrimaNota.ru

Забрать подарок
ВАМ ПОДАРКИ ОТ ПРОЕКТА
"ГИТАРНАЯ РЕВОЛЮЦИЯ"