» 
 » 
Nephilim



Abingdon Boys School - Nephilim - табы

Чайковский в рок-аранжировке! Очень необычно, послушай!
--=-----------------------------------------------------------------------------
                             Nephilim - Abingdon Boys School
-------------------------------------------------------------------------------
Tabbed by: Daniel
Email: mrsakito@hotmail.com

Tuning:

e|12-----------------------------12---------7-----------|   
B|--12------12------12-------12-------12----7-----------|
G|------7-------------12--------------------7-----------| these are all
D|-------7--------7-------7---------7-------------------|  harmonics.
A|------------------------------------------------------|
E|------------------------------------------------------|

Main riff
e|---------------------------------------------------------------------------|
B|---------------------------------------------------------------------------|
G|---------------------------------------------------------------------------|
D|-3---7---999---5---7---999--9-----5---7---999---5---7---9------------------|
A|-3---5---777---3---5---777--9-----3---5---777---3---5---7------------------|
E|-3---5---777---3---5---777--7-----3---5---777---3---5---7------------------|

verse
e|---------------------------------------------------------------|
B|12--12--10-----------------------------------------------------|
G|--------------------12-----------12--11-----12-----------------| X2 
D|------------12----------9--12------------9---------------------|
A|---------------------------------------------------------------|
E|---------------------------------------------------------------|

e|---------------------------------------------------------------|
B|---------------------------------------------------------------|
G|---------------------------------------------------------------|
D|-5--77--57---5--77--57----7--99--79---7--99--79----------------| X2
A|---------------------------------------------------------------|
E|---------------------------------------------------------------|

Main riff
e|---------------------------------------------------------------------------|
B|---------------------------------------------------------------------------|
G|---------------------------------------------------------------------------|
D|-3---7---999---5---7---999--9-----5---7---999---5---7---9------------------|
A|-3---5---777---3---5---777--9-----3---5---777---3---5---7------------------|
E|-3---5---777---3---5---777--7-----3---5---777---3---5---7------------------|

verse
e|---------------------------------------------------------------|
B|12--12--10-----------------------------------------------------|
G|--------------------12-----------12--11-----12-----------------| X2 
D|------------12----------9--12------------9---------------------|
A|---------------------------------------------------------------|
E|---------------------------------------------------------------|

e|---------------------------------------------------------------|
B|---------------------------------------------------------------|
G|---------------------------------------------------------------|
D|-5--77--57---5--77--57----7--99--79---7--99--79----------------| X2
A|---------------------------------------------------------------|
E|---------------------------------------------------------------|

Main riff
e|---------------------------------------------------------------------------|
B|---------------------------------------------------------------------------|
G|---------------------------------------------------------------------------|
D|-3---7---999---5---7---999--9-----5---7---999---5---7---9------------------|
A|-3---5---777---3---5---777--9-----3---5---777---3---5---7------------------|
E|-3---5---777---3---5---777--7-----3---5---777---3---5---7------------------|

Before the solo
e|*12------------------*7----------------------------------------------------|
B|---*12-------*7--------------------------~12~---~7~------------------------|
G|-------*5---------*7--------12p11-9--7h9-----------------------------------|
D|---------------*7----------------------------------------------------------|
A|---------------------------------------------------------------------------|
E|---------------------------------------------------------------------------|

solo
e|---12------14b15---12-14---------------------------------------------------|
B|12----12------------------15b17-~15------------15--------------------------|
G|--------------------------------------14-14b16----16b14----12-11--11h12p11-|
D|---------------------------------------------------------------------------|
A|---------------------------------------------------------------------------|
E|---------------------------------------------------------------------------|

e|---------------------------------------------------------------------------|
B|-----------------------------------------------------15--13h15-------------|
G|------------------------------------------11-12--14------------------------|
D|-14------12--14------------------------12----------------------------------|
A|------14---------12--------------12-14-------------------------------------|
E|---------------------------14-15-------------------------------------------|

e|---15------17b19---17b19----17-15-14--17-15-14--------------12-----~14~----|
B|15----15----------------------------------------15-------12----12----------|
G|---------------------------------------------------14----------------------|
D|---------------------------------------------------------------------------|
A|---------------------------------------------------------------------------|
E|---------------------------------------------------------------------------|

Main riff
e|------------------------------------------------------------------------|
B|------------------------------------------------------------------------|
G|------------------------------------------------------------------------|
D|-3---7---999---5---7---999--9-----5---7---999---5---7---9---------------|
A|-3---5---777---3---5---777--9-----3---5---777---3---5---7---------------|
E|-3---5---777---3---5---777--7-----3---5---777---3---5---7---------------|

Little variation at the end the 2nd time
e|------------------------------------------------------------------------|
B|------------------------------------------------------------------------|
G|------------------------------------------------------------------------|
D|-3---7---999---5---7---999--9-----5---7---999---5---7---222-------------|
A|-3---5---777---3---5---777--9-----3---5---777---3---5---000-------------|
E|-3---5---777---3---5---777--7-----3---5---777---3---5---000--5b7--------|
Last riff
e|---------------------------------------------------------------------------|
B|---------------------------------------------------------------------------|
G|---------------------------------------------------------------------------|
D|222--------222-------222-------222-----------------------------------------|
A|000--------000-------000-------000-----------------------------------------|
E|000--5b7---000--5b7--000--5b7--000-----------------------------------------|

| /  slide up
| \  slide down
| h  hammer-on
| p  pull-off
| ~  vibrato
| *  harmonic
| b  bend
=============================================================================   

Abingdon Boys School - Nephilim - ноты

(включить)
Другие композиции этого автора:
Другие материалы по этой песне:
  • Аккорды, текст

https://primanota.ru/abingdon-boys-school/nephilim-chords.htm

Привет, гитарист!

Тебе подарок от сайта PrimaNota.ru

Забрать подарок
ВАМ ПОДАРКИ ОТ ПРОЕКТА
"ГИТАРНАЯ РЕВОЛЮЦИЯ"