Войти:  Facebook Google Twitter Vk Yandex Mail.ru
PrimaNota.ru - самый крупный в мире бесплатный архив песенных текстов, аккордов, табулатур и нот


Abc - Where is The Heaven? - текст песни, бас-таба, видео

Печатать
Лучшая metal-группа Петербурга

Where is The Heaven?

  • аккорды и текст

Авторы: Martin Fry, Mark White

Tabbed by: bassm99
E-mail: alanmatthews1966@yahoo.co.uk

Tuning: E, A, D, G

"Where Is The heaven?" from the album "Up" (1989)
Written by Martin Fry/Mark White

Intro: (Play Twice)

G|----------------------------------------------------------------------------|
D|----------------------------------------------------------------------------|
A|--0-3-5-0-33-0---0-3-5-0-3-0---0-3-5-0-33-0---------------------------------|
E|----------------------------------------------3-3-3-55550-------------------|

Verse: (Play 4 Times)

G|----------------------------------------------------------------------------|
D|----------------------------------------------------------------------------|
A|--0-3-5-0-33-0---0-3-5-0-3-0---0-3-5-0-33-0---------------------------------|
E|----------------------------------------------3-3-3-55550-------------------|

Chorus: (Play Twice)

G|----------------------------------------------------------------------------|
D|----------------------------------------------------------------------------|
A|--0-3-5-0-33-0---0-3-5-0-3-0---0-3-5-0-33-0---------------------------------|
E|----------------------------------------------3-3-3-55550-------------------|

Repeat Intro: (Play Once)

Repeat Verse:

Repeat Chorus:

Repeat Intro: (Play Once)

Repeat Verse:

Repeat Chorus:

Bridge: (Play 4 Times)

G|----------------------------------------------------------------------------|
D|----------------------------------------------------------------------------|
A|--5-0-33---5-0-3-0---5-0-33-------------------------------------------------|
E|----------------------------------------------------------------------------|

Bass Stops: (3:26 - 3:28)

Repeat Intro: (Play 4 Times)

Bass Stops: (4:00 - 4:16)

2nd Bridge: (Play Twice)

G|----------------------------------------------------------------------------|
D|----------------------------------------------------------------------------|
A|--0-3-5-0-33-0---0-3-5-0-3-0---0-3-5-0-33-0---------------------------------|
E|----------------------------------------------------------------------------|

Bass Stops: (4:30 - 4:34)

Repeat Chorus: (Play 6 Times)

Ending: (Play 6 Times)

G|----------------------------------------------------------------------------|
D|----------------------------------------------------------------------------|
A|--0-3-5-0-33-0---0-3-5-0-3-0---0-3-5-0-33-0---------------------------------|
E|----------------------------------------------3-3-3-55550-------------------|

Bass Stops: (6:10)   
Другие материалы по этой песне:
  • Аккорды и текст

https://primanota.ru/abc/where-is-the-heaven-chords.htm

Привет, гитарист!

Тебе подарок от сайта PrimaNota.ru

Забрать подарок
ВАМ ПОДАРКИ ОТ ПРОЕКТА
"ГИТАРНАЯ РЕВОЛЮЦИЯ"