Войти:  Facebook Google Twitter Vk Yandex Mail.ru
PrimaNota.ru - самый крупный в мире бесплатный архив песенных текстов, аккордов, табулатур и нот


Abc - Bite The Hand - текст песни, бас-таба, видео

Печатать
Лучшая metal-группа Петербурга

Bite The Hand

  • аккорды и текст

Авторы музыки: Martin Fry, Mark White, Stephen Singleton
Авторы текста: Martin Fry, Mark White, Stephen Singleton
Tabbed by: bassm99
E-mail: alanmatthews1966@yahoo.co.uk

Tuning: E, A, D, G

"Bite The Hand" from the album "Beauty Stab" (1983)
Written by Fry/Singleton/White

Bass Starts: 0:07

Intro: (Play 4 Times) 

G|----------------------------------------------------------------------------|
D|----------------------------------------------------------------------------|
A|--5-5-----------------------------------------------------------------------|
E|----------------------------------------------------------------------------|

Verse: (Play 24 Times)

G|----------------------------------------------------------------------------|
D|----------------------------------------------------------------------------|
A|--5-5-----------------------------------------------------------------------|
E|----------------------------------------------------------------------------|

Bridge: 

G|----------------------------------------------------------------------------|
D|----------------------------------------------------------------------------|
A|----3-5-3-535----5-7-5-757----1-3-1-313----3-5-3-535----3-5-3-535-----------|
E|--5------------7------------3------------5------------5---------------------|

G|----------------------------------------------------------------------------|
D|--------------------------------3------5-3----------------------------------|
A|----5-7-5-757----1-3-1-313----5---5--------5--------------------------------|
E|--7------------3------------------------------------------------------------|

No Bass: 1:27 - 1:31

Repeat Verse: (Play 16 Times)

Bridge:

G|----------------------------------------------------------------------------|
D|----------------------------------------------------------------------------|
A|----3-0-5-3-0-535----5-0-7-5-0-757----1-0-3-1-0-313----3-0-5-3-0-535--------|
E|--5----------------7----------------3----------------5----------------------|

G|----------------------------------------------------------------------------|
D|---------------------------------------------------------3------5-3---------|
A|----3-0-5-3-0-535----5-0-7-5-0-757----1-0-3-1-0-313----5---5--------5-------|
E|--5----------------7----------------3---------------------------------------|

Verse/Ending:

G|----------------------------------------------------------------------------|
D|----------------------------------------------------------------------------|
A|--5-5-(x6)---5-(x1)---5-5-(x2)----------------------------------------------|
E|----------------------------------------------------------------------------|

Bass Stops: 2:52    
Другие материалы по этой песне:
  • Аккорды и текст

https://primanota.ru/abc/bite-the-hand-chords.htm

Привет, гитарист!

Тебе подарок от сайта PrimaNota.ru

Забрать подарок
ВАМ ПОДАРКИ ОТ ПРОЕКТА
"ГИТАРНАЯ РЕВОЛЮЦИЯ"