Войти:  Facebook Google Twitter Vk Yandex Mail.ru
PrimaNota.ru - самый крупный в мире бесплатный архив песенных текстов, аккордов, табулатур и нот


Abba - Rock N Roll Band - табы, видео

Печатать
Лучшая metal-группа Петербурга

Rock N Roll Band

  • аккорды и текст

Авторы: Benny Andersson, Björn Ulvaeus

-------------------------------------------------------------------------------
                       ROCK 'N' ROLL BAND - ABBA
-------------------------------------------------------------------------------
Tabbed by: sezar
E-mail: keanu-rimedorf@hotmail.com

Tuning: Standart

e|----------------------------------------12-----------12-------------12-----|
B|---------------------------------10-12b-12pbr-10-12b-12pbr-10-12/14--------|
G|--11pbr-9h11p9-------9-11-9-9h11-------------------------------------------|
D|----------------9h11-------------------------------------------------------|
A|---------------------------------------------------------------------------|
E|---------------------------------------------------------------------------|

e|-12h14p12------------------------------------------------------------------|
B|----------12h14p12-------------------10-12-10-12pb-12pb-12pb-12pb-12pb-----|
G|-------------------11brb9-11brb9-/11---------------------------------------|
D|---------------------------------------------------------------------------|
A|---------------------------------------------------------------------------|
E|---------------------------------------------------------------------------|

e|---------------------------------------------------------------------------|
B|-12pb-12pb-12pb-12pb-12pb-12pb-12pb-12pb-12pb-12pb-12pbr-10h12p10----------|
G|---------------------------------------------------------------------------|
D|---------------------------------------------------------------------------|
A|---------------------------------------------------------------------------|
E|---------------------------------------------------------------------------|


************************************

| /   slide up
| \   slide down
| h   hammer-on
| p   pull-off
| ~   vibrato
| +   harmonic
| x   Mute note
| b   Bend
| pb  Pre-bend
| br  Bend release
| pbr Pre-bend release
| brb Bend release bend

************************************   
Другие материалы по этой песне:
  • Аккорды и текст

https://primanota.ru/abba/rock-n-roll-band-2-chords.htm

Привет, гитарист!

Тебе подарок от сайта PrimaNota.ru

Забрать подарок
ВАМ ПОДАРКИ ОТ ПРОЕКТА
"ГИТАРНАЯ РЕВОЛЮЦИЯ"