Войти:  Facebook Google Twitter Vk Yandex Mail.ru
PrimaNota.ru - самый крупный в мире бесплатный архив песенных текстов, аккордов, табулатур и нот


Aaron Neville - Baby Im A Want You - бас-таба, видео

Печатать
Лучшая metal-группа Петербурга

Baby Im A Want You

  • аккорды и текст

Tabbed by: 6METAL6BASSIST6
E-mail: petergriffinav@gmail.com

Tuning: EADG

G|11-------------------------------------------------------------------|
D|-----------------------------14/16-14------------------12/14-12--14--|
A|---------------------------------------------------------------------|
E|---------------------------------------------------------------------|

G|11-------------------------------------------------------------------|
D|-----------------------------14/16-14--------------------7/9-12--9---|
A|---------------------------------------------------------------------|
E|---------------------------------------------------------------------|

0:14

G|----------------------------------------------------------------|
D|--------5---5-----------5---------------5---5-----------5-------|
A|------5-----------5-7-5-----5---------5-----------5-7-5-----5---|
E|3-------------------------------3-------------------------------|

G|----------------------------------------------------------------|
D|--------5---5-----------5---------------5-----------------------|
A|------5-----------5-7-5-----5---------5---------3-------2-------|
E|3-------------------------------3-------------------------------|

G|----------------------------------------7---7-------5---7-------|
D|--------7---7-------5---7-------------7-----------7---7-----7---|
A|------7-----------7---7-----7---5-------------------------------|
E|5---------------------------------------------------------------|

0:31

G|----------------------------------------------------------------|
D|--------5---5-----------5---------------5---5-----------5-------|
A|------5-----------5-7-5-----5---------5-----------5-7-5-----5---|
E|3-------------------------------3-------------------------------|

G|----------------------------------------------------------------|
D|--------5---5-----------5---------------5-----------------------|
A|------5-----------5-7-5-----5---------5---------3-------2-------|
E|3-------------------------------3-------------------------------|

G|----------------------------------------7---7-------5---7-------|
D|--------7---7-------5---7-------------7-----------7---7-----7---|
A|------7-----------7---7-----7---5-------------------------------|
E|5---------------------------------------------------------------|

G|--------------------------------|
D|----------------------7-----8---|
A|--------------------------------|
E|3---------------3---------------|

0:51

G|----------------------------------------------------------------|
D|9-------------9-----------------------------10----------10------|
A|--------9-----------9-----------------10------------10------10--|
E|----------------------------7---8-------------------------------|

G|----------------------------------------------------------------|
D|9-------------9-----------------------------10------------------|
A|--------9-----------9-----------------10------------------------|
E|----------------------------7---8-------------------------------|

1:03

G|----------------------------------------------------------------|
D|--------5---5-----------5---------------5---5-----------5-------|
A|------5-----------5-7-5-----5---------5-----------5-7-5-----5---|
E|3-------------------------------3-------------------------------|

G|----------------------------------------------------------------|
D|--------5---5-----------5---------------5-----------------------|
A|------5-----------5-7-5-----5---------5---------3-------2-------|
E|3-------------------------------3-------------------------------|

G|----------------------------------------7---7-------5---7-------|
D|--------7---7-------5---7-------------7-----------7---7-----7---|
A|------7-----------7---7-----7---5-------------------------------|
E|5---------------------------------------------------------------|

G|--------------------------------|
D|----------------------7-----8---|
A|--------------------------------|
E|3---------------3---------------|

1:24

G|----------------------------------------------------------------|
D|9-------------9-----------------10----------10----------10------|
A|--------9-----------9-----------------10------------10------10--|
E|----------------------------7-----------------------------------|

G|----------------------------------------------------------------|
D|9-------------9-----------------------------10------------------|
A|--------9-----------9-----------------10------------------------|
E|----------------------------7---8-------------------------------|

G|--------------------------------|
D|--------------------------------|
A|------3-----5-------------------|
E|5-------------------------------|

1:38

G|----------------------------------------------------------------|
D|--------5---5-----------5---------------5---5-----------5-------| x3
A|------5-----------5-7-5-----5---------5-----------5-7-5-----5---|
E|3-------------------------------3-------------------------------|

G|--------------------------------|
D|--------5-------------7-----8---|
A|------5-------------------------|
E|3---------------3---------------|

1:58

G|----------------------------------------------------------------|
D|9-------------9-----------------------------10----------10------|
A|--------9-----------9-----------------10------------10------10--|
E|----------------------------7---8-------------------------------|

G|----------------------------------------------------------------|
D|9-------------9-------------------------------------------------|
A|--------9-----------9-----------------10------------------------|
E|----------------------------7---8-----------8-------------------|

G|--------------------------------|
D|--------------------------------|
A|------3-----5-------------------|
E|5-------------------------------|

2:13

G|----------------------------------------------------------------|
D|--------5---5-----------5---------------5---5-----------5-------| until fadeout.
A|------5-----------5-7-5-----5---------5-----------5-7-5-----5---|
E|3-------------------------------3-------------------------------|   
Другие материалы по этой песне:
  • Аккорды и текст

https://primanota.ru/aaron-neville/baby-im-a-want-you-chords.htm

Привет, гитарист!

Тебе подарок от сайта PrimaNota.ru

Забрать подарок
ВАМ ПОДАРКИ ОТ ПРОЕКТА
"ГИТАРНАЯ РЕВОЛЮЦИЯ"