Войти:  Facebook Google Twitter Vk Yandex Mail.ru
PrimaNota.ru - самый крупный в мире бесплатный архив песенных текстов, аккордов, табулатур и нот


Aaron Neville - All These Things - бас-таба, видео

Печатать
Лучшая metal-группа Петербурга

All These Things

  • аккорды и текст

Tabbed by: 6METAL6BASSIST6
E-mail: petergriffinav@gmail.com

Tuning: EADG

G|------------------------------------------------------------------------|
D|------------------------------------------------------------------------| x2
A|------------------6-----------------------------------------------------|
E|6-----------------------------------------------------------------------|

G|------------------------------------------------------------------------|
D|------------------------------------------------------------------------|
A|------------------6-----------------------------------6-----------------|
E|6-----------------------------------------------------------------------|

G|------------------------------------------------------------------------|
D|------------------------------------------------------------------------|
A|------------------3-----------------------------------3-----------------|
E|------------------------------------------------------------------------|

G|------------------------------------------------------------------------|
D|------------------------------------------------------------------------|
A|------------------6-----------------------------------6-----------------|
E|------------------------------------------------------------------------|

G|------------------------------------------------------------------------|
D|------------------------------------------------------------------------|
A|------------------3-----------------------------------3-----------------|
E|3-----------------------------------------------------------------------|

G|------------------------------------------------------------------------|
D|------------------5-----------------------------------5-----------------|
A|------------------------------------------------------------------------|
E|------------------------------------------------------------------------|

G|------------------------------------------------------------------------|
D|------------------------------------------------------------------------|
A|------------------3-----------------------------------3-----------------|
E|------------------------------------------------------------------------|

G|------------------------------------------------------------------------|
D|------------------5-----------------------------------5-----------------|
A|------------------------------------------------------------------------|
E|------------------------------------------------------------------------|

G|------------------------------------------------------------------------|
D|------------------------------------------------------------------------|
A|------------------------------------------------------------------------|
E|------------------6-----------------------------------6-----------------|

                    0:46

G|------------------------------------------------------------------------|
D|------------------------------------------------------------------------|
A|------------------6-----------------------------------6-----------------|
E|------------------------------------------------------------------------|

G|------------------------------------------------------------------------|
D|------------------6-----------------------------------6-----------------|
A|------------------------------------------------------------------------|
E|------------------------------------------------------------------------|

G|------------------------------------------------------------------------|
D|------------------------------------------------------------------------|
A|------------------3-----------------------------------3-----------------|
E|------------------------------------------------------------------------|

G|------------------------------------------------------------------------|
D|------------------3-----------------------------------------------------|
A|------------------------------------------------------------------------|
E|------------------------------------------------------4-----------------|

G|------------------------------------------------------------------------|
D|------------------------------------------------------------------------|
A|------------------------------------------------------3-----------------|
E|7-----------------6-----------------------------------------------------|

G|------------------------------------------------------------------------|
D|------------------3-----------------------------------------------------|
A|------------------------------------------------------------------------|
E|------------------------------------------------------6-----------------|

G|------------------------------------------------------------------------|
D|------------------------------------------------------------------------|
A|------------------6-----------------------------------------------------|
E|------------------------------------------------------------------------|

1:15

G|------------------------------------------------------------------------|
D|------------------------------------------------------------------------|
A|------------------------------------------------------------------------|
E|6-----------------6-----------------------------------------------------|

G|------------------------------------------------------------------------|
D|------------------------------------------------------------------------|
A|------------------6-----------------------------------6-----------------|
E|6-----------------------------------------------------------------------|

G|------------------------------------------------------------------------|
D|------------------------------------------------------------------------|
A|------------------3-----------------------------------3-----------------|
E|3-----------------------------------------------------------------------|

G|------------------------------------------------------------------------|
D|------------------------------------------------------------------------|
A|------------------6-----------------------------------6-----------------|
E|6-----------------------------------------------------------------------|

G|------------------------------------------------------------------------|
D|------------------------------------------------------------------------|
A|------------------3-----------------------------------3-----------------|
E|3-----------------------------------------------------------------------|

G|------------------------------------------------------------------------|
D|------------------------------------------------------5-----------------|
A|5-----------------------------------------------------------------------|
E|------------------3-----------------------------------------------------|

G|------------------------------------------------------------------------|
D|------------------------------------------------------------------------|
A|------------------3-----------------------------------3-----------------|
E|3-----------------------------------------------------------------------|

G|------------------------------------------------------------------------|
D|------------------------------------------------------------------------|
A|5-----------------------------------------------------------------------|
E|------------------3-----------------------------------3-----------------|

G|------------------------------------------------------------------------|
D|------------------------------------------------------------------------|
A|------------------------------------------------------------------------|
E|1-----------------6-----------------------------------6-----------------|

1:52

G|------------------------------------------------------------------------|
D|------------------------------------------------------------------------|
A|------------------6-----------------------------------6-----------------|
E|6-----------------------------------------------------------------------|

G|------------------------------------------------------------------------|
D|------------------6-----------------------------------6-----------------|
A|4-----------------------------------------------------------------------|
E|------------------------------------------------------------------------|

G|------------------------------------------------------------------------|
D|------------------------------------------------------------------------|
A|------------------3-----------------------------------3-----------------|
E|------------------------------------------------------------------------|

G|------------------------------------------------------------------------|
D|------------------3-----------------------------------------------------|
A|------------------------------------------------------------------------|
E|------------------------------------------------------4-----------------|

G|------------------------------------------------------------------------|
D|------------------------------------------------------------------------|
A|------------------------------------------------------3-----------------|
E|------------------6-----------------------------------------------------|

G|------------------------------------------------------------------------|
D|------------------3-----------------------------------------------------|
A|------------------------------------------------------------------------|
E|------------------------------------------------------6-----------------|

G|------------------------------------------------------------------------|
D|------------------------------------------------------------------------|
A|------------------6-----------------------------------------------------|
E|------------------------------------------------------------------------|

G|------------------------------------------------------------------------|
D|------------------------------------------------------------------------| x6 until fadeout.
A|------------------6-----------------------------------------------------|
E|6-----------------------------------------------------------------------|   
https://primanota.ru/aaron-neville/all-these-things-chords.htm

Привет, гитарист!

Тебе подарок от сайта PrimaNota.ru

Забрать подарок
ВАМ ПОДАРКИ ОТ ПРОЕКТА
"ГИТАРНАЯ РЕВОЛЮЦИЯ"