Войти:  Facebook Google Twitter Vk Yandex Mail.ru
PrimaNota.ru - самый крупный в мире бесплатный архив песенных текстов, аккордов, табулатур и нот


A Static Lullaby - Rattlesnake - табы

Печатать
Поддержи лучшую metal-группу Петербурга!

Rattlesnake

  • аккорды, текст

Intro/Verse 2
E|-----------------------------------------------------------------------|
B|-----------------------------------------------------------------------|
G|-----------------------------------------------------------------------|
D|-0-3-4--0-3-4--0-3-4-55555---------------------------------------------|
A|-0-3-4--0-3-4--0-3-4-55555---------------------------------------------|
D|-0-3-4--0-3-4--0-3-4-55555---------------------------------------------|

Pre-Chorus 2x
E|-----------------------------------------------------------------------|
B|-----------------------------------------------------------------------|
G|-----------------------------------------------------------------------|
D|-----------------------------------------------------------------------|
A|--55353-5---------55353-------0----------------------------------------|
D|----------55353533-------55353-53--------------------------------------|

Chorus Guitar 1 2x
E|-----------------------------------------------------------------------|
B|-----------------------------------------------------------------------|
G|--77777---------77777--------------------------------------------------|
D|---------888888-------888888--101010101010-----------------------------|
A|--55555--888888-55555-888888--101010101010-----------------------------|
D|---------888888-------888888--101010101010-----------------------------|

Intro again
then the rest is still under tabbing!
   
https://primanota.ru/a-static-lullaby/rattlesnake-chords.htm

Привет, гитарист!

Тебе подарок от сайта PrimaNota.ru

Забрать подарок
ВАМ ПОДАРКИ ОТ ПРОЕКТА
"ГИТАРНАЯ РЕВОЛЮЦИЯ"