Войти:  Facebook Google Twitter Vk Yandex Mail.ru
PrimaNota.ru - самый крупный в мире бесплатный архив песенных текстов, аккордов, табулатур и нот


A Place To Bury Strangers - Mind Control - бас-таба

Печатать
Лучшая metal-группа Петербурга

Mind Control

  • аккорды, текст

Авторы: Dion Lunadon, Oliver Ackermann

-------------------------------------------------------------------------------
                             Mind Control - A Place To Bury Strangers
-------------------------------------------------------------------------------
Tabbed by: AJoos
E-mail: arminjoos@yahoo.de

Tuning:

Intro/Main Riff

G|---------------------------------------------------------------------------|
D|-----------6-4-------------------------------------------------------------|
A|-4-4-4-4-4-----6-7-7-7-6-6-7-7-7-------------------------------------------|
E|---------------------------------------------------------------------------|

Bridge

G|---------------------------------------------------------------------------|
D|---------------------------------------------------------------------------|
A|-4-4-4-4-4-4-4-4-7-7-7-7-7-7-7-7-------------------------------------------|
E|---------------------------------7-7-7-7-7-7-7-7-5-5-5-5-5-5-5-5-----------|

G|---------------------------------------------------------------------------|
D|---------------------------------9-9-9-9-9-9-9-9-7-7-7-7-7-7-7-7-----------|
A|-4-4-4-4-4-4-4-4-7-7-7-7-7-7-7-7-------------------------------------------|
E|---------------------------------------------------------------------------|

Transition

G|---------------------------------------------------------------------------|
D|-11-11-11-11-11-11-11-11-11-11-11-11-11-11-11-11---------------------------|
A|---------------------------------------------------------------------------|
E|---------------------------------------------------------------------------|

Refrain

G|---------------------------------------------------------------------------|
D|-11-11-11-11-11-11-11-11-7-7-7-6-6-6---------------------------------------|
A|-------------------------------------7-7-----------------------------------|
E|---------------------------------------------------------------------------|


| /  slide up
| \  slide down
| h  hammer-on
| p  pull-off
| ~  vibrato
| +  harmonic
| x  Mute note
===============================================================================   
https://primanota.ru/a-place-to-bury-strangers/mind-control-chords.htm

Привет, гитарист!

Тебе подарок от сайта PrimaNota.ru

Забрать подарок
ВАМ ПОДАРКИ ОТ ПРОЕКТА
"ГИТАРНАЯ РЕВОЛЮЦИЯ"