Войти:  Facebook Google Twitter Vk Yandex Mail.ru
PrimaNota.ru - самый крупный в мире бесплатный архив песенных текстов, аккордов, табулатур и нот


A Place To Bury Strangers - Keep Slipping Away - табы, бас-таба

Печатать
Поддержи лучшую metal-группу Петербурга!

Keep Slipping Away

  • аккорды, текст

Авторы: Oliver Ackermann

Main part:
Use Pith pedal, Delay, Reverb and little dist.

E||---------------------------------------------------------------------------------------------------||
B||---------------------------------------------------------------------------------------------------||
G||---------------------------------------------------------------------------------------------------||
D||--------8-----------6-----4--4--3--4--6--4--3-----------8-----------6-----4--4--3--4--6--8--6--4---||
A||--6--6-----6--4--4-----4-----------------------4--6--6-----6--4--4-----4---------------------------||
E||---------------------------------------------------------------------------------------------------||

Chords:

|-----------|
|-----------|
|-----------|
|--8--6--4--|
|--6--4--2--|
|-----------|   
https://primanota.ru/a-place-to-bury-strangers/keep-slipping-away-chords.htm

Привет, гитарист!

Тебе подарок от сайта PrimaNota.ru

Забрать подарок
ВАМ ПОДАРКИ ОТ ПРОЕКТА
"ГИТАРНАЯ РЕВОЛЮЦИЯ"