Войти:  Facebook Google Twitter Vk Yandex Mail.ru
PrimaNota.ru - самый крупный в мире бесплатный архив песенных текстов, аккордов, табулатур и нот


A Place To Bury Strangers - Deadbeat - бас-таба, видео

Печатать
Лучшая metal-группа Петербурга

Deadbeat

  • аккорды и текст

Авторы: Jono MOFO, Jay Space, Oliver Ackermann

-------------------------------------------------------------------------------
                             Deadbeat - A Place To Bury Strangers
-------------------------------------------------------------------------------
Tabbed by: AJoos
E-mail: arminjoos@yahoo.de

Tuning: Standard EADG

Main Riff/Verse

G|---------------------------------------------------------------------------|
D|---------------------------------------------------------------------------|
A|---------------------------------------------------------------------------|
E|-0-0-0-3-3-3-5-3-0-0-0-3-3-3-5-3-0-0-0-3-3-3-5-3-/12-----------------------|

Slight rhythmic variations of this riff are played throughout the verse.

The most common variation is this:

G|---------------------------------------------------------------------------|
D|---------------------------------------------------------------------------|
A|---------------------------------------------------------------------------|
E|-0--0-3--3-5-3-0--0-3--3-5-3-0--0-3--3-5-3-/12-----------------------------|

The slide to 12 may come after more repetitions of the main riff. 


Refrain:

G|---------------------------------------------------------------------------|
D|---------------------------------------------------------------------------|
A|---------------------------------------------------------------------------|     x 6
E|-3-3-3-3-3-/12-------------------------------------------------------------|


G|---------------------------------------------------------------------------|
D|---------------------------------------------------------------------------|
A|---------------------------------------------------------------------------|
E|-3-3-3-3-3-/12--12--11-11-10-10-9------------------------------------------|


After the refrain comes verse again where the main riff is repeated until the next refrain. After the 3rd 
refrain, the main riff is repeated until the song ends.


| /  slide up
| \  slide down
| h  hammer-on
| p  pull-off
| ~  vibrato
| +  harmonic
| x  Mute note
===============================================================================   
Добавлено: 20.08.2014
Другие материалы по этой песне:
  • Аккорды и текст

Страница создана 20.08.2014
https://primanota.ru/a-place-to-bury-strangers/deadbeat-chords.htm

Привет, гитарист!

Тебе подарок от сайта PrimaNota.ru

Забрать подарок
ВАМ ПОДАРКИ ОТ ПРОЕКТА
"ГИТАРНАЯ РЕВОЛЮЦИЯ"