Войти:  Facebook Google Twitter Vk Yandex Mail.ru
PrimaNota.ru - самый крупный в мире бесплатный архив песенных текстов, аккордов, табулатур и нот


A Global Threat - Stop The Violence - текст песни, табы, бас-таба, видео

Печатать
Лучшая metal-группа Петербурга

Stop The Violence

  • аккорды и текст
  • gtp-табы

this STOP THE VIOLENCE b y A GLOBAL THREAT

(fast punx struming as usual)

intro
e-------------
b-------------
g--4--6-7-----
d--4--6-7-5---   2x
a--2--4-5-5---
E---------3---

verse
e-------------------------------------------------
b-------------------------------------------------
g--4-4-4-4--6-7-----------7-7-7-7--6-7------------    9x
d--4-4-4-4--6-7--5-5-5-5--7-7-7-7--6-7--7-7-7-7---
a--2-2-2-2--4-5--5-5-5-5--5-5-5-5--4-5--7-7-7-7---
E----------------3-3-3-3----------------5-5-5-5---

chorus
e-----------------------
b-----------------------
g------------7-7-7-7----   4x
d--4-4--5-5--7-7-7-7----
a--4-4--5-5--5-5-5-5----
E--2-2--3-3-------------

solo
e------------------------------------------------
b----------------------------8-8-8888-6----------
g--8-8-8-8-8-7-5-7-5-5-7-5-5------------7-5-7----   2x
d------------------------------------------------
a------------------------------------------------
E------------------------------------------------

verse
e-------------------------------------------------
b-------------------------------------------------
g--4-4-4-4--6-7-----------7-7-7-7--6-7------------    2x
d--4-4-4-4--6-7--5-5-5-5--7-7-7-7--6-7--7-7-7-7---
a--2-2-2-2--4-5--5-5-5-5--5-5-5-5--4-5--7-7-7-7---
E----------------3-3-3-3----------------5-5-5-5---

chorus
e-----------------------
b-----------------------
g------------7-7-7-7----   4x
d--4-4--5-5--7-7-7-7----
a--4-4--5-5--5-5-5-5----
E--2-2--3-3-------------

verse 
e-------------
b-------------
g--4--6-7-----
d--4--6-7-5---   2x
a--2--4-5-5---
E---------3---


chorus
e-----------------------
b-----------------------
g------------7-7-7-7----   4x
d--4-4--5-5--7-7-7-7----
a--4-4--5-5--5-5-5-5----
E--2-2--3-3-------------

this betty and this STOP THE VIOLENCE
any questions email me at www.hotbetty911@yahoo.com


"STOP THE VIOLENCE!!!!!!! and up the punx"   
Добавлено: 31.07.2012
Другие материалы по этой песне:

Страница создана 25.02.2012
https://primanota.ru/a-global-threat/stop-the-violence-chords.htm

Привет, гитарист!

Тебе подарок от сайта PrimaNota.ru

Забрать подарок
ВАМ ПОДАРКИ ОТ ПРОЕКТА
"ГИТАРНАЯ РЕВОЛЮЦИЯ"