Войти:  Facebook Google Twitter Vk Yandex Mail.ru
PrimaNota.ru - самый крупный в мире бесплатный архив песенных текстов, аккордов, табулатур и нот


A Flock Of Seagulls - Who's That Girl (she's Got It) - текст песни, бас-таба, видео

Печатать
Лучшая metal-группа Петербурга

Who's That Girl (she's Got It)

  • аккорды и текст

Tabbed by: bassm99
E-mail: alanmatthews1966@yahoo.co.uk

Tuning: E, A, D, G

"Who's That Girl (She's Got It)" from the album "Dream Come True" (1986)
Written by Mike Score/A Flock Of Seagulls

Bass Starts: 0:13

Intro: (Play 4 Times)

G|----7---7-----------------------------------------------------------------|
D|-------------7---7----5---5----7---7--------------------------------------|
A|--5---5-------------------------------------------------------------------|
E|-----------5---5----3---3----5---5----------------------------------------|

Chorus: (Play 4 Times)

G|----7---7-----------------------------------------------------------------|
D|-------------7---7----5---5----7---7--------------------------------------|
A|--5---5-------------------------------------------------------------------|
E|-----------5---5----3---3----5---5----------------------------------------|

Verse: (Play 8 Times)

G|----7---7-----------------------------------------------------------------|
D|-------------7---7----5---5----7---7--------------------------------------|
A|--5---5-------------------------------------------------------------------|
E|-----------5---5----3---3----5---5----------------------------------------|

Repeat Chorus:

Repeat Verse:

Repeat Chorus:

Bass Stops: (2:00 - 2:13)

Guitar Solo: (Play 4 Times)

G|----7---7-----------------------------------------------------------------|
D|-------------7---7----5---5----7---7--------------------------------------|
A|--5---5-------------------------------------------------------------------|
E|-----------5---5----3---3----5---5----------------------------------------|

Repeat Verse:

Repeat Chorus: (Play 23 Times)

End:

G|----7---7-----------------------------------------------------------------|
D|-------------7---7----5---5----7------------------------------------------|
A|--5---5-------------------------------------------------------------------|
E|-----------5---5----3---3----5---5----------------------------------------|   
Другие материалы по этой песне:
  • Аккорды и текст

https://primanota.ru/a-flock-of-seagulls/whos-that-girl-shes-got-it-chords.htm

Привет, гитарист!

Тебе подарок от сайта PrimaNota.ru

Забрать подарок
ВАМ ПОДАРКИ ОТ ПРОЕКТА
"ГИТАРНАЯ РЕВОЛЮЦИЯ"