Войти:  Facebook Google Twitter Vk Yandex Mail.ru
PrimaNota.ru - самый крупный в мире бесплатный архив песенных текстов, аккордов, табулатур и нот


A Flock Of Seagulls - Electrics - текст песни, бас-таба, видео

Печатать
Лучшая metal-группа Петербурга

Electrics

  • аккорды и текст

Авторы: Frank Maudsley, Mike Score, Paul Reynolds, Ali Score

Tabbed by: bassm99
E-mail: alanmatthews1966@yahoo.co.uk

Tuning: E, A, D, G

"Electrics" from the album "Listen" (1983)
Written by M.Score/A.Score/F.Maudsley/P.Reynolds

Intro: (Synth Bass Starts 0:32) (Fades Out)

G|--------------------------------------------------------------------------|
D|--------------------------------------------------------------------------|
A|--------------------------------------------------------------------------|
E|--33333333-(x7)--3333-(x1)------------------------------------------------|

Intro: (Bass Starts 0:46) (Play 4 Times)

G|--------------------------------------------------------------------------|
D|--------------------------------------------------------------------------|
A|--------------------5-5--3-3--2-2-----------------------------------------|
E|--5-5-5-5--3-3-3-3--------------------------------------------------------|

Verse: (Play 8 Times)

G|--------------------------------------------------------------------------|
D|--------------------------------------------------------------------------|
A|--------------------5-5--3-3--2-2-----------------------------------------|
E|--5-5-5-5--3-3-3-3--------------------------------------------------------|

Chorus: (* Let Note Ring)

G|--------------------------------------------------------------------------|
D|--------------------------------------------------------------------------|
A|--4-4--4---4-4--4---6-6--6---6-6--6*---4-4--4---4-4--4---6-6--6---4-6--17\|
E|--------------------------------------------------------------------------|

Repeat Bass Intro:

Repeat Verse: (Play 4 Times)

Chorus:

G|--------------------------------------------------------------------------|
D|--------------------------------------------------------------------------|
A|--4--4---4--4---6--6---6--6/----------------------------------------------|
E|--------------------------------------------------------------------------|

G|--------------------------------------------------------------------------|
D|--------------------------------------------------------------------------|
A|--4-4-2-4---4-4-2-4---6-6-4-6---6-6-4-6-5-4-------------------------------|
E|--------------------------------------------------------------------------|

G|--------------------------------------------------------------------------|
D|--------------------------------------------------------------------------|
A|--------------------------------------------------------------------------|
E|--2-2-0-2---2-2-0-2---4-4-2-4---4-4-2-4-----------------------------------|

G|--------------------------------------------------------------------------|
D|--------------------------------------------------------------------------|
A|--------------------------------------------------------------------------|
E|--2-2-0-2---2-2-0-2---4-4-2-4---2-4---17\---------------------------------|

Repeat Bass Intro:

Bridge:

G|--------------------------------------------------------------------------|
D|--------------------------------------------------------------------------|
A|--------------------------------------------------------------------------|
E|--2-2--2---2-2--2---4-4--4---4-4--4---2-2--2---2-2--2---4-4--4---2-4---17\|

Repeat Bass Intro:

Ending: (Play 3 Times)

G|--------------------------------------------------------------------------|
D|--------------------------------------------------------------------------|
A|--------------------5-5--3-3--2-2-----------------------------------------|
E|--5-5-5-5--3-3-3-3--------------------------------------------------------|

End:

G|--------------------------------------------------------------------------|
D|--------------------------------------------------------------------------|
A|--------------------5-5-5--3--0-------------------------------------------|
E|--5-5-5-5--3-3-3-3--------------------------------------------------------|   
Другие композиции этого автора:
Другие материалы по этой песне:
  • Аккорды и текст

https://primanota.ru/a-flock-of-seagulls/electrics-chords.htm

Привет, гитарист!

Тебе подарок от сайта PrimaNota.ru

Забрать подарок
ВАМ ПОДАРКИ ОТ ПРОЕКТА
"ГИТАРНАЯ РЕВОЛЮЦИЯ"