Войти:  Facebook Google Twitter Vk Yandex Mail.ru
PrimaNota.ru - самый крупный в мире бесплатный архив песенных текстов, аккордов, табулатур и нот


254 - Wait Awake - бас-таба

Печатать
Лучшая metal-группа Петербурга

Wait Awake

  • аккорды, текст

Wait/ Awake - 2:54
Scarlet EP

[Intro] 0:05
G|------------------------------------------------------------------------------------|
D|------------------------------------------------------------------------------------|
A|-2-2-2-2-2-2-2-2-2-2-2-2-2-2-2-2-2-2-2-2-2------------------------------------------| x2
E|-------------------------------------------1-1-1-1-1-1-1-1-1-1-1-1-1-1-1-1-1-1-1-1-1|

[Verse] 0:23
G|------------------------------------------------------------------------------------|
D|------------------------------------------------------------------------------------|
A|-2-2-2-2-2-2-2-2-2-2-2-2-2-2-2-2-2-2-2-2-2------------------------------------------| x4
E|-------------------------------------------1-1-1-1-1-1-1-1-1-1-1-1-1-1-1-1-1-1-1-1-1|

[Chorus] 1:00
G|---------------------------------------------------------------------------------|
D|---------------------------------------------------------------------------------|
A|-7-7-7-7-7-7-7-7-7-7-7-7-7-7-9-9-9-9-2-2-2-2-2-2-2-2-2-2-3-3-3-3-3-3-3-3-5-5-5-5-| x2 End on A|-7~-
E|---------------------------------------------------------------------------------|

[Verse] 1:23
G|------------------------------------------------------------------------------------|
D|------------------------------------------------------------------------------------|
A|-2-2-2-2-2-2-2-2-2-2-2-2-2-2-2-2-2-2-2-2-2------------------------------------------| x4
E|-------------------------------------------1-1-1-1-1-1-1-1-1-1-1-1-1-1-1-1-1-1-1-1-1|

[Chorus] 2:00
G|---------------------------------------------------------------------------------|
D|---------------------------------------------------------------------------------|
A|-7-7-7-7-7-7-7-7-7-7-7-7-7-7-9-9-9-9-2-2-2-2-2-2-2-2-2-2-3-3-3-3-3-3-3-3-5-5-5-5-| x4 End on A|-7~-
E|---------------------------------------------------------------------------------|

[Bridge] 2:41
G|---------------------------------------------------------------------|
D|-----------------5-5-5-5-5-5-5-5-------------------------------------|
A|-7-7-7-7-7-7-7-7-----------------2-2-2-2-2-2-2-0-2-2-2-2-2-2-5-5-----| x4 End on A|-7~-
E|---------------------------------------------------------------------|

[Chorus] 3:14
G|---------------------------------------------------------------------------------|
D|---------------------------------------------------------------------------------|
A|-7-7-7-7-7-7-7-7-7-7-7-7-7-7-9-9-9-9-2-2-2-2-2-2-2-2-2-2-3-3-3-3-3-3-3-3-5-5-5-5-| x4 End on A|-7~-
E|---------------------------------------------------------------------------------|

| ~   Vibrato   
Другие композиции этого автора:
Другие материалы по этой песне:
  • Аккорды, текст

https://primanota.ru/254/wait-awake-chords.htm

Привет, гитарист!

Тебе подарок от сайта PrimaNota.ru

Забрать подарок
ВАМ ПОДАРКИ ОТ ПРОЕКТА
"ГИТАРНАЯ РЕВОЛЮЦИЯ"