Войти:  Facebook Google Twitter Vk Yandex Mail.ru
PrimaNota.ru - самый крупный в мире бесплатный архив песенных текстов, аккордов, табулатур и нот


254 - Sugar - табы, бас-таба

Печатать
Лучшая metal-группа Петербурга

Sugar

  • аккорды, текст

-------------------------------------------------------------------------------
                             Sugar - 2:54
-------------------------------------------------------------------------------
Tabbed by:
E-mail:

Esta es la guitarra de Hannah tal y como la toca en esta presentación
https://www.youtube.com/watch?v=1AidvJnT-JE&list=LLJ5-o6RkLs0Ujzkfr34hK_A&index=3

La saque a oído pero pienso que esta bien 

Tuning: Standar

Intro
e|--12-------15----|
B|--12-------15----|
G|-----------------|
D|-----------------|
A|-----------------|
E|-----------------|

Verso
e|-----------------------------------------|
B|-----------------------------------------|
G|-----------------------------------------|  x2
D|-----------------------------------------|
A|-7-7-7-7-7-7-7-7-7-7-7-10-10-10-10-10----|
E|-----------------------------------------|                                                    x3

e|----------------------------------------------------------------------------------------|
B|----------------------------------------------------------------------------------------|
G|----------------------------------------------------------------------------------------|
D|----------------------------------------------------------------------------------------|
A|-9-9-9-9-9-9-9-9-9-9-9-12-12-12-12-12-9-9-9-9-9-9-9-9-10-10-10-9-9-9-10-10-10-----------|
E|----------------------------------------------------------------------------------------|

Las dos primeras partes del verso se hace tres veces


Pre-Coro
e|-------------------|
B|-------------------|
G|-------------------|
D|-----9-----10x-9---|  x4
A|-7-7---7-7---------|
E|-------------------|


Coro
e|------------------------------------------------------------|
B|------------------------------------------------------------|
G|------------------------9-12-11----------9-12-11------------|
D|---12-9------12-9---------------9--7/9-----------9--7/9-----| x4
A|-7---------7------------------------------------------------|
E|------------------------------------------------------------|

e|-8-----------------------8-----|
B|-8-----------------------8-----|
G|-9-----------------------9-----|
D|-10----------------------10----|
A|-10----------------------10----|
E|-8-----------------------8-----|

Verso
e|-----------------------------------------|
B|-----------------------------------------|
G|-----------------------------------------|  x2
D|-----------------------------------------|
A|-7-7-7-7-7-7-7-7-7-7-7-10-10-10-10-10----|
E|-----------------------------------------|                                                    x3


e|----------------------------------------------------------------------------------------|
B|----------------------------------------------------------------------------------------|
G|----------------------------------------------------------------------------------------|
D|----------------------------------------------------------------------------------------|
A|-9-9-9-9-9-9-9-9-9-9-9-12-12-12-12-12-9-9-9-9-9-9-9-9-10-10-10-9-9-9-10-10-10-----------|
E|----------------------------------------------------------------------------------------|

Pre-Coro
e|-------------------|
B|-------------------|
G|-------------------|
D|-----9-----10x-9---|  x4
A|-7-7---7-7---------|
E|-------------------|


Coro
e|------------------------------------------------------------|
B|------------------------------------------------------------|
G|------------------------9-12-11----------9-12-11------------|
D|---12-9------12-9---------------9--7/9-----------9--7/9-----| x4
A|-7---------7------------------------------------------------|
E|------------------------------------------------------------|

e|-8-----------------------8-----|
B|-8-----------------------8-----|
G|-9-----------------------9-----|
D|-10----------------------10----|
A|-10----------------------10----|
E|-8-----------------------8-----|


Solo
e|------------------------------------------------------------------------------------------|
B|-12-12-15-12---12-15-12---12-15-----------12-12-15-12---12-15-12---12-15------------------|
G|---------------------------------12-14-12--------------------------------12-14-16~--------|
D|------------------------------------------------------------------------------------------|
A|------------------------------------------------------------------------------------------|
E|------------------------------------------------------------------------------------------|

e|------------------------------------------------------------------------------------------|
B|-12-12-15-12---12-15-12---12-15-----------12-12-15-12---12-15-12---12-15------------------|
G|---------------------------------12-14-12---------------------------------12-14-12~-------|
D|------------------------------------------------------------------------------------------|
A|------------------------------------------------------------------------------------------|
E|------------------------------------------------------------------------------------------|

e|-------------------------------------------------------------------------------------------|
B|-12-12-15-12-0-12-15-12-0-12-15----------12-12-15-12-0-12-15-12-0-12-15--------------------|
G|--------------------------------12-14-12--------------------------------12-14-14/16~-------|
D|-------------------------------------------------------------------------------------------|
A|-------------------------------------------------------------------------------------------|
E|-------------------------------------------------------------------------------------------|

e|-------------------------------------------------------------------------------------------|
B|-12-12-15-12-0-12-15-12-0-12-15--------------12-12-15-12-0-12-15-12-0-12-15----------------|
G|--------------------------------12-14-14/16~--------------------------------12-14-12-------|
D|-------------------------------------------------------------------------------------------|
A|-------------------------------------------------------------------------------------------|
E|-------------------------------------------------------------------------------------------|



************************************

| /   slide up
| \   slide down
| h   hammer-on
| p   pull-off
| ~   vibrato
| +   harmonic
| x   Mute note
| b   Bend
| pb  Pre-bend
| br  Bend release
| pbr Pre-bend release
| brb Bend release bend

************************************   
Другие материалы по этой песне:
  • Аккорды, текст

https://primanota.ru/254/sugar-chords.htm

Привет, гитарист!

Тебе подарок от сайта PrimaNota.ru

Забрать подарок
ВАМ ПОДАРКИ ОТ ПРОЕКТА
"ГИТАРНАЯ РЕВОЛЮЦИЯ"