Войти:  Facebook Google Twitter Vk Yandex Mail.ru
PrimaNota.ru - самый крупный в мире бесплатный архив песенных текстов, аккордов, табулатур и нот


254 - Got A Hold - бас-таба

Печатать
Лучшая metal-группа Петербурга

Got A Hold

  • аккорды, текст

Got a Hold - 2:54
Scarlet EP

Note that the number of times a note is displayed is generalized to be read easier. Should be very easy to 
tell how many times a note is played just by listening.


[Intro/Verse] 0:06
G|-------------------------------------------------------------------------------------|
D|-------------------------------------------------------------------------------------|
A|-3-3-3-3-3-3-3-3-3-3-3-3-3-3-3-3-3-3-3-3-3-5-5-5-5-----------------7-7-7-7-7-7-7-7---| x4 (slide from 7 to 3
E|---------------------------------------------------5-5-5-5-5-5-5-5-------------------|     the 2nd time)
end on A|-3-

[Chorus] 0:56
G|-----------------------------------------------------------------------------------------------------|
D|-----------------------------------------------------------------------------------------------------|
A|-3-3-3-3-3-3-3-3-3-5-5-5-5-7-7-7-7-7-7-7-5-5-5-5-3-3-3-3-3-3-3-3-3-5-5-5-5-7-7-7-7-7-7-7-9-9-9-9-9-9-| x2 
E|-----------------------------------------------------------------------------------------------------|

G|---------------------------------------------------------------------------------------------|
D|---------------------------------------------------------------------------------------------|
A|-3-3-3-3-3-3-3-3-3-9-9-9-9-7-7-7-7-7-7-7-5-5-5-5-3-3-3-3-3-3-3-3-3-9-9-9-9-7-7-7-7-7-9-9-9-9-|
E|---------------------------------------------------------------------------------------------|

[Verse] 1:35
G|-------------------------------------------------------------------------------------|
D|-------------------------------------------------------------------------------------|
A|-3-3-3-3-3-3-3-3-3-3-3-3-3-3-3-3-3-3-3-3-3-5-5-5-5-----------------7-7-7-7-7-7-7-7---| x4 (again slide from 
E|---------------------------------------------------5-5-5-5-5-5-5-5-------------------|     7 to 3 2nd time)
end on A|-3-

[Chorus] 2:26
G|-----------------------------------------------------------------------------------------------------|
D|-----------------------------------------------------------------------------------------------------|
A|-3-3-3-3-3-3-3-3-3-5-5-5-5-7-7-7-7-7-7-7-5-5-5-5-3-3-3-3-3-3-3-3-3-5-5-5-5-7-7-7-7-7-7-7-9-9-9-9-9-9-| x2 
E|-----------------------------------------------------------------------------------------------------|

G|---------------------------------------------------------------------------------------------|
D|---------------------------------------------------------------------------------------------|
A|-3-3-3-3-3-3-3-3-3-9-9-9-9-7-7-7-7-7-7-7-5-5-5-5-3-3-3-3-3-3-3-3-3-9-9-9-9-7-7-7-7-7-9-9-9-9-|
E|---------------------------------------------------------------------------------------------|


[Break/Solo] 3:06
G|-------------------------------------------------------------------------------------|
D|-------------------------------------------------------------------------------------|
A|-3-3-3-3-3-3-3-3-3-3-3-3-3-3-3-3-3-3-3-3-3-5-5-5-5-----------------7-7-7-7-7-7-7-7---| x2
E|---------------------------------------------------5-5-5-5-5-5-5-5-------------------|

[Chorus] 3:35
G|-----------------------------------------------------------------------------------------------------|
D|-----------------------------------------------------------------------------------------------------|
A|-3-3-3-3-3-3-3-3-3-5-5-5-5-7-7-7-7-7-7-7-5-5-5-5-3-3-3-3-3-3-3-3-3-5-5-5-5-7-7-7-7-7-7-7-9-9-9-9-9-9-| x4 
E|-----------------------------------------------------------------------------------------------------|

   
https://primanota.ru/254/got-a-hold-chords.htm

Привет, гитарист!

Тебе подарок от сайта PrimaNota.ru

Забрать подарок
ВАМ ПОДАРКИ ОТ ПРОЕКТА
"ГИТАРНАЯ РЕВОЛЮЦИЯ"