Войти:  Facebook Google Twitter Vk Yandex Mail.ru
PrimaNota.ru - самый крупный в мире бесплатный архив песенных текстов, аккордов, табулатур и нот


254 - Dawn - бас-таба

Печатать
Лучшая metal-группа Петербурга

Dawn

  • аккорды, текст

Dawn - 2:54
Scarlet EP

[Intro] 0:09
G|------------|
D|------------|
A|------------| x2
E|-0~--3h5-3--|

[Verse] 0:18
G|--------------------------------------------------------------------|
D|--------------------------------------------------------------------|
A|--------------------------------------------------------------------| x2 end on E|-0-
E|-0-0-0-0-0-0-0-0-0-0-0-0-0-0-0-0-3h5-5-5-5-5-5-5-3-3-3-3-7-7-7-7-7--|

Pause

[Verse] 0:58
G|------------------------------------------------------------------------|
D|------------------------------------------------------------------------|
A|------------------------------------------------------------------------| x4
E|-0-0-0-0-0-0-0-0-0-0-0-0-0-0-0-0-3h5-5-5-5-5-5-5-3-3-3-3-7-7-7-7-7-6-5--|

[Verse/Outro] 1:36
G|-------------------------------------------------------|
D|--------------5~-7----------------------5~-7-----------|
A|-7~-7-7-7-7--------5-5-5---7~-7-7-7-7--------5-5-5-----| Repeat until end.
E|------------7------------7------------7------------7---|

| h   Hammer-on
| ~   Vibrato   
https://primanota.ru/254/dawn-chords.htm

Привет, гитарист!

Тебе подарок от сайта PrimaNota.ru

Забрать подарок
ВАМ ПОДАРКИ ОТ ПРОЕКТА
"ГИТАРНАЯ РЕВОЛЮЦИЯ"