Войти:  Facebook Google Twitter Vk Yandex Mail.ru
PrimaNota.ru - самый крупный в мире бесплатный архив песенных текстов, аккордов, табулатур и нот


254 - Crest - бас-таба

Печатать
Лучшая metal-группа Петербурга

Crest

  • аккорды, текст

Авторы музыки: Hannah Thurlow, Colette Thurlow
Авторы текста: Colette Thurlow
2:54 - Crest
The Other I

[Intro] 0:05
G|-------------------|
D|-------------------|
A|-------10-10-10-10-| x4
E|-12-12-------------|

[Verse] 0:16
G|----------------------------------------------------|
D|----------------------------------------------------|
A|-------10-10-10-9-9-9-12-12-12-14-14-14-12-12-12----| x8
E|-12-12----------------------------------------------|

[Chorus] 0:37
G|---------------------------------------------------------------------------|
D|---------------------------------------------------------------------------|
A|-5-5-5-5-5-5-5-5-7-7-7-7-7-7-7-7-9-9-9-9-9-9-9-9-10-10-10-10-10-10-10-10---| x2
E|---------------------------------------------------------------------------|

[Intro] 1:01
G|-------------------|
D|-------------------|
A|-------10-10-10-10-| x4
E|-12-12-------------|

[Verse] 1:12
G|----------------------------------------------------|
D|----------------------------------------------------|
A|-------10-10-10-9-9-9-12-12-12-14-14-14-12-12-12----| x8
E|-12-12----------------------------------------------|

[Chorus] 1:33
G|---------------------------------------------------------------------------|
D|---------------------------------------------------------------------------|
A|-5-5-5-5-5-5-5-5-7-7-7-7-7-7-7-7-9-9-9-9-9-9-9-9-10-10-10-10-10-10-10-10---| x2
E|---------------------------------------------------------------------------|

Pause

[Break] 2:00
G|---------------------------------------------------------------------------------------------------|
D|---------------------------------------------------------------------------------------------------|
A|-2-2-2-2-2-2-2-2-2-2-2-2-2-2-----------------------5-5-5-5-5-5-5-5-5-5-5-5-7-7-7-7-7-7-7-7-7-7-7-7-| x4
E|-----------------------------3-3-3-3-3-3-3-3-3-3-3-------------------------------------------------|

G|-----------------|
D|-----------------|
A|-7~--10~--5~--3~-| x4
E|-----------------|

[Intro] 2:55
G|-------------------|
D|-------------------|
A|-------10-10-10-10-| x4
E|-12-12-------------|

[Verse] 3:06
G|----------------------------------------------------|
D|----------------------------------------------------|
A|-------10-10-10-9-9-9-12-12-12-14-14-14-12-12-12----| x4
E|-12-12----------------------------------------------|

[Outro] 3:16
G|---------------------------------------------------------------------------|
D|---------------------------------------------------------------------------|
A|-5-5-5-5-5-5-5-5-7-7-7-7-7-7-7-7-9-9-9-9-9-9-9-9-10-10-10-10-10-10-10-10---| x2
E|---------------------------------------------------------------------------|

| ~ Vibrato   
https://primanota.ru/254/crest-chords.htm

Привет, гитарист!

Тебе подарок от сайта PrimaNota.ru

Забрать подарок
ВАМ ПОДАРКИ ОТ ПРОЕКТА
"ГИТАРНАЯ РЕВОЛЮЦИЯ"