Войти:  Facebook Google Twitter Vk Yandex Mail.ru
PrimaNota.ru - самый крупный в мире бесплатный архив песенных текстов, аккордов, табулатур и нот


254 - Circuitry - бас-таба, видео

Печатать
Просмотров: 57
Лучшая metal-группа Петербурга

Circuitry

  • аккорды и текст

2:54 - Circuitry
2:54 (Self titled album)

[Intro/Verse] 0:17
G|----------------------------------------------------------------|
D|----------------------------------------------------------------|
A|----------------------------------------------------------------|  
E|-7-7-7-7-7-7-7-7-7-7-7-7-7-7-7-5-5-5-5-5-5-5-5-5-5-5-5-5-5-5-5--|   
                                 
G|---------------------------------------------------------------|      x2
D|---------------------------------------------------------------|
A|---------------------------------------------------------------|
E|-3-3-3-3-3-3-3-3-3-3-3-3-3-3-3-2-2-2-2-2-2-2-2-2-2-2-2-5-5-5-5-|

[Chorus] 0:52 (note the spaces between the notes, just listen carefully to the song)
G|-----------------------------------------------------------|
D|-----------------------------------------------------------|
A|--------------------------------7--7--7-7-7-7--7--7-7-7-7--|
E|-7--7--7-7-7-7--7--7-7-7-7-7-7-----------------------------|

G|-------------------------------------------------------------------------|   x2
D|-------------------------------------------------------------------------|
A|-10--10--10-10-10-10--10--10-10-10-10-10-10-10-10-10-10-10-10-10-9-9-9-9-|
E|-------------------------------------------------------------------------|

[Post-Chorus] 1:28
G|----------------------------------------------------------------|
D|----------------------------------------------------------------|
A|----------------------------------------------------------------|  
E|-7-7-7-7-7-7-7-7-7-7-7-7-7-7-7-5-5-5-5-5-5-5-5-5-5-5-5-5-5-5-5--|  

[Verse] 1:38
G|----------------------------------------------------------------|
D|----------------------------------------------------------------|
A|----------------------------------------------------------------|  
E|-7-7-7-7-7-7-7-7-7-7-7-7-7-7-7-5-5-5-5-5-5-5-5-5-5-5-5-5-5-5-5--|   
                                 
G|---------------------------------------------------------------|      x2
D|---------------------------------------------------------------|
A|---------------------------------------------------------------|
E|-3-3-3-3-3-3-3-3-3-3-3-3-3-3-3-2-2-2-2-2-2-2-2-2-2-2-2-5-5-5-5-|

[Chorus] 2:12
G|-----------------------------------------------------------|
D|-----------------------------------------------------------|
A|--------------------------------7--7--7-7-7-7--7--7-7-7-7--|
E|-7--7--7-7-7-7--7--7-7-7-7-7-7-----------------------------|

G|-------------------------------------------------------------------------|   x2
D|-------------------------------------------------------------------------|
A|-10--10--10-10-10-10--10--10-10-10-10-10-10-10-10-10-10-10-10-10-9-9-9-9-|
E|-------------------------------------------------------------------------|

[Break] 2:47
G|------------------------------------------------------------------|
D|------------------------------------------------------------------|
A|-----------------------------------7-7-7-7-7-7-7-7-7-7-7-7-7-7-7--|
E|-7-7-7-7-7-7-7-7-7-7-7-7-7-7-7-7-7--------------------------------|

G|---------------------------------------------------------------------------|  
D|---------------------------------------------------------------------------|
A|-10-10-10-10-10-10-10-10-10-10-10-10-10-10-10-10-10-10-10-10-10-10-10-10---|
E|---------------------------------------------------------------------------|

G|----------------------------------------------------------------|
D|----------------------------------------------------------------|
A|----------------------------------------------------------------| (x2 just on this last bit)
E|-7-7-7-7-7-7-7-7-7-7-7-7-7-7-7-5-5-5-5-5-5-5-5-5-5-5-5-5-5-5-5--|  

[Outro] 3:23
G|----------------------------------|
D|----------------------------------|
A|-----5----------------------------| Repeat until end. End on E|-3-
E|-7-7---7-5-5-7-5-3-3-5-3-2-2-5-2--|
Добавлено: 20.06.2018
Другие материалы по этой песне:
  • Аккорды и текст

Страница создана 20.06.2018
https://primanota.ru/254/circuitry-chords.htm

Привет, гитарист!

Тебе подарок от сайта PrimaNota.ru

Забрать подарок
ВАМ ПОДАРКИ ОТ ПРОЕКТА
"ГИТАРНАЯ РЕВОЛЮЦИЯ"